Oops, an error
Loading. Please wait.

Soberano tab

version 1
version 1

Whole song

215 views 1 this week
no commentswrite comment
1 2 3 4 5
2 more votes to show rating
add to favorites
×
Save as Personal and add changes to this tab that will be seen only by you. Learn more ›
×
You can save this tab as Personal to edit and correct it or add notes. All changes will be seen only by you. Learn more »
launch autoscroll
font size
0
reset
how to read this tab
guitar tuner
edit
Autoscroll
slow
fast
+/-
esc
set tempo
stop
Tabs de la intro, tonos y tabs del resto de la canción.
Espero que les guste y les ayude.
Liraplayer (angelin_050@

Introducción (C,C,C,C, - C,C,Am,Am)

e------8----------8-----------------------8-------------
B----------------------------8--------------------------
G---9----10----9----10----9-----10-----9----10----------
D-------------------------------------------------------
A-------------------------------------------------------
E---8----------8----------8------------8----------------

e-----8----------8-----------------------8--------------
B----------------------------8--------------------------
G--9----10----9----10-----9-----10----9----10-----------
D-------------------------------------------------------
A-------------------------0-----------0-----------------
E--8----------8-----------------------------------------

Tabs 1er estrofa: (Tonos C, Am7, C, Am7) (Manos que fueron
clavadas Por mi, Heridas que hablan de tu inmenso amor)

e-----8----------8-----------8---------------------------
B---------------------------------------8----------------
G--9----10----9----10-----9----10----9-------------------
D-----------------------------------------10-------------
A-------------------------0----------0-------------------
E--8----------8------------------------------------------

e-----8----------8---------------------------------------
B----------------------------8------------8--------------
G--9----10----9----10-----9-----10----9------------------
D-------------------------------------------10-----------
A-------------------------0-----------0------------------
E--8----------8------------------------------------------

Coro
Dm  F       C         G    Dm            F    G
Por eso te llamo mi Cristo, por eso te canto
G           Dm               F                   C          G
Dios del universo Salvador eterno  Rey de toda la creación
G          Dm                 F              C
Redentor divino Dios a ti me rindo gloria te doy

Tabs 2da estrofa: (Tonos: C, Am7, C, Am7) (Santo Dios, gran
Soberano es, Al enviar tu hijo por la humanidad)

e-----8-----------8--------------------------------------
B-----------------------------8-----------8--------------
G--9-----10----9----10----9-----10----9------------------
D--------------------------------------------10----------
A-------------------------0-----------0------------------
E--8-----------8-----------------------------------------

e-------8---------8--------------------------------------
B-----------------------------8------------8-------------
G--9-----10----9----10-----9-----10----9-----------------
D--------------------------------------------10----------
A--------------------------0-----------0-----------------
E--8-----------8-----------------------------------------

(Coro x 1)  (Por eso te amo? Dios del Universo?)
            G        Dm       F      C
Puente: // Santo,   Santo,   Santo Dios //
B-----------8----------------------

Tabs 3era estrofa: Tonos:(C, C, C, Am7) (Manos que se
Se entregaron por amor, Lo que soy siempre te daré Señor)

e-----8----------8----------------------8----------------
B---------------------------8----------------------------
G--9----10----9----10----9----10----9-----10-------------
D--------------------------------------------------------
A--------------------------------------------------------
E--8----------8----------8----------8--------------------

e-----8----------8---------------------------------------
B----------------------------8------------8--------------
G--9----10----9----10----9------10----9------------------
D-------------------------------------------10-----------
A-------------------------------------0------------------
E--8----------8----------8-------------------------------

Coro x 1

Coro y Puente combinados x 1
B----------12----s13----------------

Puente x 1

            
            
Suggest correction
Creating personal tab
Creating personal tab
You can edit any tab online and save it as your Personal.

You can edit, replace or remove any tab part or add personal notes – all changes will be seen only by you.

Personal tabs can be accessed anytime from any device, even offline.
Learn more »
Give kudos to tab author, rate the tab!
1 2 3 4 5
comments
print report bad tab
guest
Wanna post a correction for this tab? Suggest correction