Oops, an error
Loading. Please wait.

Solution bass

version 2
version 2

Whole song

Interactive

12,694 views 9 this week
3 commentsread comments
1 2 3 4 5
x 5
add to favorites
×
Save as Personal and add changes to this tab that will be seen only by you. Learn more ›
×
You can save this tab as Personal to edit and correct it or add notes. All changes will be seen only by you. Learn more »
launch autoscroll
font size
0
reset
guitar tuner
edit
Autoscroll
slow
fast
+/-
esc
set tempo
stop
-------------------------------------------------------------------------------
			     Solution - Hillsong United
-------------------------------------------------------------------------------

Tabbed By : Zechariah Gill
e-mail: gillzack@hotmail.com

Tuning: Standard
(at first there is no bass)
Verse I:
G|---------------------------------------------------------------------------|
D|9-9-9-9-9-9-9-9-9-9-9-9-9-9-9-9-9-9-9-9-9-9-9-9-9-9-9-9-9-9-9-9------------|
A|---------------------------------------------------------------------------|
E|---------------------------------------------------------------------------|


Pre-Chorus:
G|---------------------------------------------------------------------------|
D|------------------2-2-2-2-2-2-2-2-----------------4-4-4-4-4-4--------------|
A|----------------------------------2-2-2-2-2-2-2-2-------------2-2----------|
E|9\4-4-4-4-4-4-4-4----------------------------------------------------------|

G|---------------------------------------------------------------------------|
D|----------------2-2-2-2-2-2-2-2-----------------4-4-4-4-4-4-4/6----6-------|
A|--------------------------------2-2-2-2-2-2-2-2----------------------------|
E|4-4-4-4-4-4-4-4------------------------------------------------------------|


Verse II:x2
G|---------------------------------------------------------------------------|
D|--------------------------------2-2-2-2-2-2-2-2-2-2-2-2-2-2-2-2------------|
A|2-2-2-2-2-2-2-2------------------------------------------------------------|
E|----------------2-2-2-2-2-2-2-2--------------------------------------------|


Pre-Chorus:
G|---------------------------------------------------------------------------|
D|----------------2-2-2-2-2-2-2-2-----------------4-4-4-4-4-4----------------|
A|--------------------------------2-2-2-2-2-2-2-2-------------2-2------------|
E|4-4-4-4-4-4-4-4------------------------------------------------------------|

G|---------------------------------------------------------------------------|
D|----------------2-2-2-2-2-2-2-2--------------------------------------------|
A|--------------------------------2-2-2-2-2-2-2-2----------------------------|
E|4-4-4-4-4-4-4-4---------------------------------2-2-2-2-2-2-2-2------------|


Chorus:
G|---------------------------------------------------------------------------|
D|---------------------------------------------------------------------------|
A|----------------2-2-2-2---2-2-2--------------------------------------------|
E|0-0-0-0---0-0-0-----------------2-2-2-2-2-2-2-2----------------------------|

G|---------------------------------------------------------------------------|
D|---------------------------------------------------------------------------|
A|------------------------------------------------4-4-4-4---4-4-4------------|
E|0-0-0-0---0-0-0-4-4-4-4---4-4-4-2-2-2-2---2-2-2----------------------------|


Fill:
G|---------------------------------------------------------------------------|
D|---------------------------------------------------------------------------|
A|4/7-7-7-7-7-7-7-7-7-7-7-7-7-7-7-7------------------------------------------|
E|---------------------------------------------------------------------------|


Verse III:
G|---------------------------------------------------------------------------|
D|---------------------------------------------------------------------------|
A|---------------------------------------------------------------------------|
E|7-7-7\0--------------------------------------------------------------------|
right here cut out for the rest of verse III


Pre-Chorus:
G|---------------------------------------------------------------------------|
D|----------------2-2-2-2-2-2-2-2-----------------4-4-4-4-4-4----------------|
A|--------------------------------2-2-2-2-2-2-2-2-------------2-2------------|
E|4-4-4-4-4-4-4-4------------------------------------------------------------|

G|---------------------------------------------------------------------------|
D|----------------2-2-2-2-2-2-2-2--------------------------------------------|
A|--------------------------------2-2-2-2-2-2-2-2----------------------------|
E|4-4-4-4-4-4-4-4---------------------------------2-2-2-2-2-2-2-2------------|


Chorus II:
G|---------------------------------------------------------------------------|
D|---------------------------------------------------------------------------|
A|----------------2-2-2-2---2-2-2--------------------------------------------|
E|0-0-0-0---0-0-0-----------------2-2-2-2-2-2-2-2-4-4-4-4---4-4-4------------|

G|---------------------------------------------------------------------------|
D|---------------------------------------------------------------------------|
A|------------------------------------------------4-4-4-4---4-4-4------------|
E|0-0-0-0---0-0-0-4-4-4-4---4-4-4-2-2-2-2---2-2-2----------------------------|

G|---------------------------------------------------------------------------|
D|---------------------------------------------------------------------------|
A|----------------2-2-2-2---2-2-2--------------------------------------------|
E|0-0-0-0---0-0-0-----------------2-2-2-2-2-2-2-2----------------------------|

G|---------------------------------------------------------------------------|
D|---------------------------------------------------------------------------|
A|------------------------------------------------3-3-3-3-3-3-3-3------------|
E|0-0-0-0---0-0-0-4-4-4-4---4-4-4-2-2-2-2---2-2-2----------------------------|


Musical Interlude:
G|---------------------------------------------------------------------------|
D|----------------2-2-2-2-2-2-2-2--------------------------------------------|
A|--------------------------------2-2-2-2-2-2-2-2----------------------------|
E|4-4-4-4-4-4-4-4---------------------------------2-2-2-2---2-2-2------------|

G|---------------------------------------------------------------------------|
D|----------------2-2-2-2-2-2-2-2-----------------4-4-4-4-4-4-4-4-6----------|
A|--------------------------------2-2-2-2-2-2-2-2----------------------------|
E|4-4-4-4-4-4-4-4------------------------------------------------------------|


Bridge:
G|---------------------------------------------------------------------------|
D|6----2p--------------------------------------------------------------------|
A|---------------------------------------------------------------------------|
E|---------------------------------------------------------------------------|
pause for a bit.

G|---------------------------------------------------------------------------|
D|----------------2-2-2-2-2-2-2-2--------------------------------------------|
A|--------------------------------2-2-2-2-2-2-2-2----------------------------|
E|4-4-4-4-4-4-4-4---------------------------------2-2-2-2-2-2-2-2------------|

G|---------------------------------------------------------------------------|
D|----------------2-2-2-2-2-2-2-2--------------------------------------------|
A|--------------------------------2-2-2-2-2-2-2-2----------------------------|
E|4-4-4-4-4-4-4-4---------------------------------2-2-2-2-2-2-2-2------------|
the to do Tenni's stuff play 
G|-------------------------------------------------------4-4-4-3-3-----------|
D|------6-6-6-4-4-------6-6-6-4-4-------6-6-6-4-4--4-4-4---------------------|
A|----------------7-7-7-----------2-2-2--------------------------------------|
E|4-4-4----------------------------------------------------------------------|

G|-------------------------------------------------------4-4-4-3-3-----------|
D|------6-6-6-4-4-------6-6-6-4-4-------6-6-6-4-4--4-4-4---------------------|
A|----------------7-7-7-----------2-2-2--------------------------------------|
E|4-4-4----------------------------------------------------------------------|


Chorus III:
G|---------------------------------------------------------------------------|
D|---------------------------------------------------------------------------|
A|-----2---------------------------------------------------------4-4-4-4-4-4-|
E|0---------2----0-0-0-0-0-0-0-0-4-4-4-4-4-4-4-4-2-2-2-2-2-2-2-2-------------|

G|---------------------------------------------------------------------------|
D|---------------------------------------------------------------------------|
A|----------------2-2-2-2---2-2-2--------------------------------------------|
E|0-0-0-0---0-0-0-----------------2-2-2-2-2-2-2-2-4-4-4-4---4-4-4------------|

G|---------------------------------------------------------------------------|
D|---------------------------------------------------------------------------|
A|------------------------------------------------3-3-3-3-3-3-3-3------------|
E|0-0-0-0---0-0-0-4-4-4-4---4-4-4-2-2-2-2---2-2-2----------------------------|


Bridge II:
G|---------------------------------------------------------------------------|
D|---------------------------------------------------------------------------|
A|------6-6-6-4-4-------6-6-6-4-4--2-2-2-6-6-6-4-4-------2-2-2-1-1-----------|
E|4-4-4-----------0-0-0----------------------------2-2-2---------------------|

G|---------------------------------------------------------------------------|
D|---------------------------------------------------------------------------|
A|------6-6-6-4-4-------6-6-6-4-4--2-2-2-6-6-6-4-4-------2-2-2-1-1-----------|
E|4-4-4-----------0-0-0----------------------------2-2-2---------------------|

Outro:
G|---------------------------------------------------------------------------|
D|---------------------------------------------------------------------------|
A|------6-6-6-4-4-------6-6-6-4-4--2-2-2-6-6-6-4-4-------2-2-2-1-1-----------|
E|4-4-4-----------0-0-0----------------------------2-2-2---------------------|

G|---------------------------------------------------------------------------|
D|---------------------------------------------------------------------------|
A|------6-6-6-4-4-------6-6-6-4-4--2-2-2-6-6-6-4-4-------2-2-2-1-1-----------|
E|4-4-4-----------0-0-0----------------------------2-2-2-----------0---------|


| /  slide up
| \  slide down
| h  hammer-on
| p  pull-off
| ~  vibrato
| +  harmonic
| x  Mute note
===============================================================================

            
            
Suggest correction
Creating personal tab
Creating personal tab
You can edit any tab online and save it as your Personal.

You can edit, replace or remove any tab part or add personal notes – all changes will be seen only by you.

Personal tabs can be accessed anytime from any device, even offline.
Learn more »
comments
print report bad tab
3 comments total.
+1 reply
crashandburn_t 92 Jun 09, 2008 01:39 PM

This tab is decent.

+1 reply
Digitech250 60 Dec 20, 2008 06:09 PM

on the bridge you need to change the part that plays 2nd fret a string to 7th fret E string makes it alot easier

0 reply
HowsYouDoing 115 Feb 07, 2012 06:13 PM

you are brilliant.

guest
You may want to rate the tab now too:
select rating
Wanna post a correction for this tab? Suggest correction