Oops, an error
Loading. Please wait.

Solution tab

version 4
version 4

Whole song

Interactive

3,892 views 1 this week
no commentswrite comment
1 2 3 4 5
3 more votes to show rating
add to favorites
×
Save as Personal and add changes to this tab that will be seen only by you. Learn more ›
×
You can save this tab as Personal to edit and correct it or add notes. All changes will be seen only by you. Learn more »
launch autoscroll
font size
0
reset
how to read this tab
guitar tuner
edit
Autoscroll
slow
fast
+/-
esc
set tempo
stop
Here is the tab, lyrics are at bottom of page... Good song!! One of my favorites and fun
play along with

  (Intro) (0:24 - 0:37)

E:| ---------12---------------12-------------12---10-9-------|
B:| --10h9p10----------10h9p10--------10h9p10---------12-9---|
G:| ---------------------------------------------------------|
D:| ---------------------------------------------------------|   (x2)
A:| ---------------------------------------------------------|
D:| ---------------------------------------------------------|

         (0:37 - 0:43)
E:| --------------------------|
B:| --------------------------|
G:| -----777-67-----666-------|
D:| --------------------97----|    (x2)
A:| --979--------777----------|
D:| --------------------------|


This is the way i play it, you don't have to strum it the same way i do. These are the 
The 12's are held twice as long as the first two chords
         (0:43 - 0:56)
E:| -------------------------------------------------|
B:| -------------------------------------------------|
G:| -------------------------------------------------|
D:| --77-77-77------2-22-22------12-1212121212121212-|
A:| --77-77-77------2-22-22------12-1212121212121212-|
D:| --77-77-77------2-22-22------12-1212121212121212-|

         (0:56 - 1:09)
E:| ---------12---------------12-------------12---10-9--------|
B:| --10h9p10----------10h9p10--------10h9p10---------12-9----|
G:| ----------------------------------------------------------|
D:| ----------------------------------------------------------|    (x2)
A:| ----------------------------------------------------------|
D:| ----------------------------------------------------------|


    (Chorus)
         (1:09 - 1:22)
E:| -----------------------------------------|
B:| -----------------------------------------|
G:| -----------------------------------------|
D:| --12-----7-----2------12-----4-----2-----|
A:| --12-x8--7-x8--2-x16--12-x8--4-x8--2-x16-|
D:| --12-----7-----2------12-----4-----2-----|

        (1:22 - 1:28)
E:| -------------------------|
B:| -------------------------|
G:| -----777-67-----666------|
D:| --------------------97---|   (x2)
A:| --979--------777---------|
D:| -------------------------|

       (1:28 - 1:40)
E:| ---------------------------------------|
B:| ---------------------------------------|
G:| ---------------------------------------|
D:| ---------------------------------------|  (x2)
A:| ---------------------------------------|
D:| --7-------2-------12-1212121212121212--|

       (1:40 - 1:54)
E:| ---------12---------------12-------------12---10-9--------|
B:| --10h9p10----------10h9p10--------10h9p10---------12-9----|
G:| ----------------------------------------------------------|
D:| ----------------------------------------------------------|    (x2)
A:| ----------------------------------------------------------|
D:| ----------------------------------------------------------|

      (1:54 - 2:19)
E:| -------------------------------------------|
B:| -------------------------------------------|
G:| -------------------------------------------|
D:| --12-----7-----2------12-----4-----2-------|   (x2)
A:| --12-x8--7-x8--2-x16--12-x8--4-x8--2-x16---|
D:| --12-----7-----2------12-----4-----2-------|


    (Solo)  (2:19 - 2:32)
E:| ----------------------------------------------------------------------|
B:| ----------------------------------------------------------------------|
G:| -----------------13h14p13------------------------------16x3-14x3-13x3-|
D:| --------14--14-16----------16-14-14h16--------14--14-16---------------|
A:| --161616--16----------------------------161616--16--------------------|
D:| ----------------------------------------------------------------------|

E:| --------------------------------------------------------------14h16p14-|
B:| -----------------------------------------------------17x3-15x3---------|
G:| -----------------13h14p13--------------16x3-14x3-13x3------------------|
D:| --------14--14-16---------16-14-14h16----------------------------------|
A:| --161616--16-----------------------------------------------------------|
D:| -----------------------------------------------------------------------|

   (BREAK/Bridge) (2:32 - 2:46) (2:46 - 3:23)
      Some Tremelo picking but nothin other than going back and fourth on these two
Than it goes back into Chorus

E:| -------------------------------------|
B:| --1010101010101010-----9999999999999-|
G:| -------------------------------------|
D:| -------------------------------------|
A:| -------------------------------------|
D:| -------------------------------------|

                 (3:23 - 3:49)
E:| -----------------------------------------|
B:| -----------------------------------------|
G:| -----------------------------------------|
D:| --12-----7-----2------12-----4-----2-----|
A:| --12-----7-----2------12-x8--4-x8--2-x16-|
D:| --12-----7-----2------12-----4-----2-----|

E:| -----------------------------------------|
B:| -----------------------------------------|
G:| -----------------------------------------|
D:| --12-----7-----2------12-----4-----2-----|
A:| --12-x8--7-x8--2-x16--12-x8--4-x8--2-x16-|
D:| --12-----7-----2------12-----4-----2-----|

    (Outro)      (3:49 - 4:15)
E:| ----------------------------------------------------------------------|
B:| ----------------------------------------------------------------------|
G:| -----------------13h14p13------------------------------16x3-14x3-13x3-|
D:| --------14--14-16----------16-14-14h16--------14--14-16---------------|
A:| --161616--16----------------------------161616--16--------------------|
D:| ----------------------------------------------------------------------|

E:| ----------------------------------------------------------------------|
B:| -----------------------------------------------------17x3-15x3-14x3---|
G:| -----------------13h14p13--------------16x3-14x3-13x3-----------------|
D:| --------14--14-16---------16-14-14h16---------------------------------|
A:| --161616--16----------------------------------------------------------|
D:| ----------------------------------------------------------------------|

E:| ----------------------------------------------------------------------|
B:| ----------------------------------------------------------------------|
G:| -----------------13h14p13------------------------------16x3-14x3-13x3-|
D:| --------14--14-16----------16-14-14h16--------14--14-16---------------|
A:| --161616--16----------------------------161616--16--------------------|
D:| ----------------------------------------------------------------------|

E:| ---------------------------------------------------17x3-16x3-14-|
B:| -------------------------------------17x3-15x3-14x3-------------|
G:| ------------------13h14p13--------------------------------------|
D:| ---------14--14-16---------16-14-14h16--------------------------|
A:| --161616--16----------------------------------------------------|
D:| ----------------------------------------------------------------|


It is not a human right
To stare not fight
While broken nations dream
Open up our eyes, so blind
That we might find
The Mercy for the need

Singing, Hey now
Fill our hearts with your compassion
Hey now
As we hold to our confession
Yeah

It is not too far a cry
To much to try
To help the least of these
Politics will not decide
If we should rise
And be your hands and feet

Singing, Hey now
Fill our hearts with your compassion
Hey Now
As we hold to our confession

Woah-oh-oh,
God be the solution
Woah-oh-oh
We will be Your hands and be Your feet.
Yeah, yeah

Higher than a circumstance
Your promise stands
Your love for all to see
Higher than protest line and dollar signs
Your love is all we need

Only You can mend the broken heart
And cause the blind to see
Erase complete the sinners past
And set the captives free
Only You can take the widows cry
And cause her heart to sing
Be a Father to the fatherless
Our Savior and our King
We will be Your hands, we will be Your feet
We will run this race
On the darkest place, we will be Your light
We will be Your light

We will be Your hands , we will be Your feet
We will run this race for the least of these
In the darkest place, we will be your light
We will be your light
We'll sing

Woah-oh-oh,
God be the solution
Woah-oh-oh
We will be Your hands and be Your feet.

Woah-oh-oh,
God be the solution
Woah-oh-oh
We will be Your hands and be Your feet.
Yeah, yeah

We will run we will run
We will run with the solution [2x]

We will be Your hands we will be Your feet
We will run this race for the least of these
In the darkest place we will be Your light
We will be Your light
We sing

            
            
Suggest correction
Creating personal tab
Creating personal tab
You can edit any tab online and save it as your Personal.

You can edit, replace or remove any tab part or add personal notes – all changes will be seen only by you.

Personal tabs can be accessed anytime from any device, even offline.
Learn more »
Give kudos to tab author, rate the tab!
1 2 3 4 5
comments
print report bad tab
guest
You may want to rate the tab now too:
select rating
Wanna post a correction for this tab? Suggest correction