Oops, an error
Loading. Please wait.

Take It All Live bass

version 5
version 5

Whole song

Interactive

1,039 views 1 this week
no commentswrite comment
1 2 3 4 5
3 more votes to show rating
add to favorites
×
Save as Personal and add changes to this tab that will be seen only by you. Learn more ›
×
You can save this tab as Personal to edit and correct it or add notes. All changes will be seen only by you. Learn more »
launch autoscroll
font size
0
reset
guitar tuner
edit
Autoscroll
slow
fast
+/-
esc
set tempo
stop
Author
Difficulty
-------------------------------------------------------------------------------
	             Take It All (Live) - Hillsong United
-------------------------------------------------------------------------------

Tabbed By :  kamakazi20012	 
e-mail: kamakazi20012@live.com

Tuning:  EADG

Comments:  I know that a friend of mine had trouble with the timing of 
the bass intro and verse.  I feel that by adding a timing signature that it
might help with the timing of the bass lines.  Using an 8-beat measure on a
4-string bass.

INTRO 

  1 2 3 4  1 2 3 4
G|--------|--------|
D|--------|------11|
A|-122-222|-22211--|
E|--------|--------|
(REPEAT INTRO UNTIL MAIN VERSE)

MAIN VERSE (YOU SENT YOUR SON...)

  1 2 3 4  1 2 3 4  1 2 3 4  1 2 3 4  1 2 3 4  1 2 3 4 
G|--------|--------|--------|--------|--------|--------|
D|--------|------11|--------|------11|--------|------11|
A|-122-222|-22211--|-122-222|-22211--|-122-222|-22211--|
E|--------|--------|--------|--------|--------|--------|

  1 2 3 4  1 2 3 4
G|--------|--------|
D|--------|--------|
A|--------|--------|
E|-44--44-|42222222|

CHORUS (JESUS, WE'RE LIVING...)

  1 2 3 4  1 2 3 4  1 2 3 4  1 2 3 4 
G|--------|--------|--------|--------|
D|--------|--------|--------|--------|
A|22222222|--------|--------|--------|
E|--------|22222222|44444444|00000000|


  1 2 3 4  1 2 3 4  1 2 3 4  1 2 3 4 
G|--------|--------|--------|--------|
D|--------|--------|--------|--------|
A|22222222|--------|4-------|--------|
E|--------|22222222|--------|--------|
(REPEAT INTRO 2X/SKIP TO MAIN VERSE)

CHORUS (2ND PASS)

  1 2 3 4  1 2 3 4  1 2 3 4  1 2 3 4 
G|--------|--------|--------|--------|
D|--------|--------|--------|--------|
A|22222222|--------|--------|--------|
E|--------|22222222|44444444|00000000|

  1 2 3 4  1 2 3 4  1 2 3 4  1 2 3 4 
G|--------|--------|--------|--------|
D|--------|--------|--------|------0/|
A|22222222|--------|4-------|--------|
E|--------|22222222|--------|--------|

BRIDGE INTRO

  1 2 3 4  1 2 3 4   
G|--------|--------|
D|99999999|99999999|
A|--------|--------|
E|--------|--------|

BRIDGE

  1 2 3 4  1 2 3 4  1 2 3 4  1 2 3 4  1 2 3 4  1 2 3 4  1 2 3 4 
G|--------|--------|--------|--------|--------|--------|--------|
D|--------|--------|--------|--------|--------|--------|--------|
A|--------|--------|--------|--------|--------|--------|22222222|
E|9\------|--------|--------|--------|--------|--------|--------|

  1 2 3 4  1 2 3 4  1 2 3 4  1 2 3 4  1 2 3 4  1 2 3 4  1 2 3 4
G|--------|66------|--------|--------|--------|66------|--------|
D|--------|---66-44|-22-----|---66-44|--------|---66-44|-22-----|
A|22222222|--------|--------|44------|--------|--------|--------|
E|--------|--------|--------|--------|--------|--------|--------|

  1 2 3 4  1 2 3 4  1 2 3 4  1 2 3 4  1 2 3 4  1 2 3 4  1 2 3 4 
G|--------|--------|--------|--------|--------|--------|4-------|
D|2-------|/9999999|\-------|------11|--------|------11|--------|
A|-2222222|--------|-122-222|-22211--|-122-222|-22211--|--------|
E|--------|--------|--------|--------|--------|--------|--------|

(REPEAT CHORUS WITH VOCALS ONLY 1X)

ENDING CHORUS

  1 2 3 4  1 2 3 4  1 2 3 4  1 2 3 4 
G|--------|--------|--------|--------|
D|--------|--------|--------|--------|
A|22222222|--------|--------|--------|
E|--------|22222222|44444444|00000000|

  1 2 3 4  1 2 3 4  1 2 3 4  1 2 3 4 
G|--------|--------|--------|--------|
D|--------|--------|--------|--------|
A|22222222|--------|4-4-4-4-|4-4-4-4-|
E|--------|22222222|--------|--------|

  1 2 3 4  1 2 3 4  1 2 3 4  1 2 3 4 
G|--------|--------|--------|--------|
D|--------|--------|--------|--------|
A|22222222|--------|--------|--------|
E|--------|22222222|44444444|00000000|

  1 2 3 4  1 2 3 4  1 2 3 4  1 2 3 4 
G|--------|--------|--------|--------|
D|--------|--------|--------|--------|
A|22222222|--------|4-4-4-4-|4-4-4-4-|
E|--------|22222222|--------|--------|

  1 2 3 4  1 2 3 4  1 2 3 4  1 2 3 4 
G|--------|--------|--------|--------|
D|66666666|--------|--------|--------|
A|--------|--------|--------|--------|
E|--------|7~~~~~~~|~~~~~~~~|--------|

| /  slide up
| \  slide down
| h  hammer-on
| p  pull-off
| ~  vibrato
| +  harmonic
| x  Mute note
===============================================================================

            
            
Suggest correction
Creating personal tab
Creating personal tab
You can edit any tab online and save it as your Personal.

You can edit, replace or remove any tab part or add personal notes – all changes will be seen only by you.

Personal tabs can be accessed anytime from any device, even offline.
Learn more »
Give kudos to tab author, rate the tab!
1 2 3 4 5
comments
print report bad tab
guest
You may want to rate the tab now too:
select rating
Wanna post a correction for this tab? Suggest correction