Oops, an error
Loading. Please wait.

Take It All tab

version 1
version 1

Whole song

Interactive

104,043 views 33 this week
6 commentsread comments
1 2 3 4 5
x 18
add to favorites
×
Save as Personal and add changes to this tab that will be seen only by you. Learn more ›
×
You can save this tab as Personal to edit and correct it or add notes. All changes will be seen only by you. Learn more »
launch autoscroll
font size
0
reset
how to read this tab
guitar tuner
edit
Autoscroll
slow
fast
+/-
esc
set tempo
stop
Author
This is IT!!! I got this tab from a man named Nate Rees, who is an awesome worship 
at CRAVE youth camp

Intro- Guitar 1
E |-------------------------------------|
B |--------------------------19-----19--|
G |-18(x3)-16(x3)-15(x3)-15-----15------|      x4
D |-------------------------------------|
A |-------------------------------------|
E |-------------------------------------|


verse 1- Guitar 1
E |-------------------------------------|
B |--------------------------19-----19--|
G |-18(x3)-16(x3)-15(x3)-15-----15------|   x9
D |-------------------------------------|
A |-------------------------------------|
E |-------------------------------------|


verse 1- Guitar 2 (starts when guitar 1 finishes the intro)
E |--------------------|
B |--------------------|
G |----------------88--|
D |-999--999--9998888--|      x5
A |-999--999--9998866--|
E |-777--777--77766----|


Then play
E |---------------------|
B |---------------------|
G |-----------11111111--|
D |-666--666--22222222--|
A |-666--666--22222222--|
E |-444--444------------|


Chorus- Both
E |-----------------------------------------|
B |-----------------------------------------|
G |-44444444----------------------11111111--|
D |-44444444--44444444--66666666--22222222--|
A |-22222222--44444444--66666666--22222222--|
E |-----------22222222--44444444------------|

E |----------------------------------|
B |----------------------------------|
G |-44444444----------------------6--|
D |-44444444--44444444--66666666--6--|
A |-22222222--44444444--66666666--4--|
E |-----------22222222--44444444-----|

verse 2- Guitar 1
E |--------------------------------|
B |----------------------19----19--|
G |-18(x3)-16(x3)-15(x3)-15----15--|      x5
D |--------------------------------|
A |--------------------------------|
E |--------------------------------|


verse 2- Guitar 2
E |--------------------|
B |--------------------|
G |----------------88--|
D |-999--999--9998888--|      x5
A |-999--999--9998866--|
E |-777--777--77766----|


Then play
E |---------------------|
B |---------------------|
G |-----------11111111--|
D |-666--666--22222222--|
A |-666--666--22222222--|
E |-444--444------------|

Chorus- Both (Play the chorus x2)
E |-----------------------------------------|
B |-----------------------------------------|
G |-44444444----------------------11111111--|
D |-44444444--44444444--66666666--22222222--|
A |-22222222--44444444--66666666--22222222--|
E |-----------22222222--44444444------------|

E |----------------------------------|
B |----------------------------------|
G |-44444444----------------------6--|
D |-44444444--44444444--66666666--6--|
A |-22222222--44444444--66666666--4--|
E |-----------22222222--44444444-----|


Bridge- Both
E |-------------------------|
B |-------------------------|
G |-------------------------|
D |-4444--6666--8888--9999--|
A |-4444--6666--8888--9999--|
E |-2222--4444--6666--7777--|

Bridge 2- Both (play x2)
E |-----------------------------------------------------------------|
B |-----------------------------------------------------------------|
G |--666---------11---666------666---------11----44444444444444444--|
D |--666--6--44--22---666--6---666--6--44--22----44444444444444444--|
A |--444--6--44--22---444--6---444--6--44--22----22222222222222222--|
E |-------4--22------------4--------4--22---------------------------|


On the last chord pause and sing the chorus then sing the chorus with just the bass
Then the first "Take" on the second time  play-
E |-----|
B |-----|
G |--6--|
D |--6--|
A |--4--|
E |-----|


Then

Chorus- Both x2
E |-----------------------------------------|
B |-----------------------------------------|
G |-44444444----------------------11111111--|
D |-44444444--44444444--66666666--22222222--|
A |-22222222--44444444--66666666--22222222--|
E |-----------22222222--44444444------------|

E |----------------------------------|
B |----------------------------------|
G |-44444444----------------------6--|
D |-44444444--44444444--66666666--6--|
A |-22222222--44444444--66666666--4--|
E |-----------22222222--44444444-----|


Then on the last "All"
play-
E |-----|
B |-----|
G |--99-|
D |--99-|
A |--77-|
E |-----|

Thats it now here are the lyrics-

verse 1-

Searching the world,
The lost will be found.
the freedom we live,
As one we cry out.
You carried the cross,
You died and rose again.
My God,
I'll only ever give my all.


verse 2-

You sent your Son,
From heaven to earth.
Delivered us all,
It's eternally heard.
I searched for truth,
And all I found is You.
My God,
I'll only ever give my all.


chorus-

Jesus, we're living for Your name.
We'll never be ashamed of you Whoa- oh- oh
Our praise
And all we are today
Take, take, take, it all.
Take, take, take, it all.


verse 1-

You sent your Son,
From heaven to earth.
Delivered us all,
It's eternally heard.
I searched for truth,
But all I found is You
My God,
I'll only ever give my all.


chorus- x2

Jesus, we're living for Your name.
We'll never be ashamed of You
Whoh- oh-oh
Our praise
And all we are today
Take, take, take, it all.
Take, take, take, it all.


bridge-

Running to the one who cures the blind.
Following the shining light
In Your hands the power to save the world
And my life.

Running to the one who cures the blind.
Following the shining light.
In Your hands the power to save the world
My God


chorus-

Jesus, we're living for Your name.
We'll never be ashamed of You
Whoh- oh-oh
Our praise
And all we are today
Take, take, take, it all.
Take, take, take, it all.


Jesus, we're living for Your name.
We'll never be ashamed of You
Whoh- oh-oh
Our praise
And all we are today
Take, take, take, it all.
Take, take, take, it all.


Jesus, we're living for Your name.
We'll never be ashamed of You
Whoh- oh-oh
Our praise
And all we are today
Take, take, take, it all.
Take, take, take, it all.


Jesus, we're living for Your name.
We'll never be ashamed of You
Whoh- oh-oh
Our praise
And all we are today
Take, take, take, it all.
Take, take, take, it all.
Take, take, take, it all.

            
            
Suggest correction
Creating personal tab
Creating personal tab
You can edit any tab online and save it as your Personal.

You can edit, replace or remove any tab part or add personal notes – all changes will be seen only by you.

Personal tabs can be accessed anytime from any device, even offline.
Learn more »
comments
print report bad tab
6 comments total. Showing first comments.
+1 reply
thatswhack01 10 Sep 06, 2008 09:48 AM

Intro- Guitar 1
E |-------------------------------------|
B |--------------------------19-----19--|
G |-18(x3)-16(x3)-15(x3)-15-----15------|
D |-------------------------------------|
A |-------------------------------------|
E |-------------------------------------|


verse 1- Guitar 1
E |-------------------------------------|
B |--------------------------17-----17--|
G |-18(x3)-16(x3)-15(x3)-15-----15------|
D |-------------------------------------|
A |-------------------------------------|
E |-------------------------------------|

0 reply
jwd724 173 May 11, 2009 06:22 PM

Pretty good, except I think you might have an extra set (or whatever the term is for the cluster of notes in the same chord on the same fret) in the chorus. It typically stops after the second (whatever term) in the second half of the chorus.

0 reply
coolhndlke 41 Jun 27, 2009 06:21 PM

easier way/ more correct way

Intro- Guitar 1
e |------------------------------14-------14----14----|
B |-14-14-14--12-12-12--12-11-11----11-11----11-------|
G |---------------------------------------------------|
D |---------------------------------------------------|
A |---------------------------------------------------|

e |------------------------------11----11h12p11-------|
B |-14-14-14--12-12-12--12-11-11----11----------12----|
G |---------------------------------------------------|
D |---------------------------------------------------|
A |---------------------------------------------------|
E |---------------------------------------------------| repeat both
E |---------------------------------------------------|

guest
You may want to rate the tab now too:
select rating
Wanna post a correction for this tab? Suggest correction