Oops, an error
Loading. Please wait.

The Time Has Come solo bass

version 1
version 1

Solo

Whole song

Interactive

7,037 views 6 this week
no commentswrite comment
1 2 3 4 5
x 8
add to favorites
×
Save as Personal and add changes to this tab that will be seen only by you. Learn more ›
×
You can save this tab as Personal to edit and correct it or add notes. All changes will be seen only by you. Learn more »
launch autoscroll
font size
0
reset
guitar tuner
edit
Autoscroll
slow
fast
+/-
esc
set tempo
stop
Author
Difficulty
This is how i play and have always played the bass solo and bridge part of
the song. I learned this to the best of my ability all by ear, and i can 
say that to me, it sounds very accurate to how it was played in the album.

And this is also my very first tab, so bare with it if it seems a bit 
crude or anything.




Bass Solo
G|-----------------------------------------------------------------|    |
D|-----7-9----7-9-----7-9-----7-9-----7-9-------------7-9----------|    |play
A|-9-9-----9-9----9-9-----9-9-----------------7-9-----------7-7----|    |2x
E|--------------------------------7-7-----7-7-----7-7-----7-----7--|    |



All we are is yours…              All we are living for...     
G|-----------------------------------------------------------------|
D|-----7-9----7-9-----7-9-----7-9-----7-9-------------7-9----------|    
A|-9-9-----9-9----9-9-----9-9-----------------7-9-----------7-7----|    
E|--------------------------------7-7-----7-7-----7-7-----7-----7--|     
 

Is all You are, all that You are… 
G|-----------------------------------------------------------------|    
D|-0-0-7-9-0-0-----0-0-7-9-0-0---------------------------7---9-----|    
A|-------------7-0-------------7-0-0-0-0-0-0-0-0-7-7-7-7---7---7---|    
E|-----------------------------------------------------------------|    

            
            
Suggest correction
Creating personal tab
Creating personal tab
You can edit any tab online and save it as your Personal.

You can edit, replace or remove any tab part or add personal notes – all changes will be seen only by you.

Personal tabs can be accessed anytime from any device, even offline.
Learn more »
comments
print report bad tab
guest
You may want to rate the tab now too:
select rating
Wanna post a correction for this tab? Suggest correction