Oops, an error
Loading. Please wait.

The Time Has Come tab

version 1
version 1

Whole song

Interactive

46,248 views 42 this week
3 commentsread comments
1 2 3 4 5
x 5
add to favorites
×
Save as Personal and add changes to this tab that will be seen only by you. Learn more ›
×
You can save this tab as Personal to edit and correct it or add notes. All changes will be seen only by you. Learn more »
launch autoscroll
font size
0
reset
how to read this tab
guitar tuner
edit
Autoscroll
slow
fast
+/-
esc
set tempo
stop
Author
Difficulty
okay, so i saw that some people wanted the correct tabs to The Time Has Come, and 
a lot of tabs and chords together, this is what i got.


Play this in triplets, over and over again until the bass kicks in, then go to Intro 2

Intro
e----------------------------------------------------|
B---10-10-10-10-10-10-10-10-10-10-10-10-10-10-10-----|
G----------------------------------------------------|
D----------------------------------------------------|
A----------------------------------------------------|
E----------------------------------------------------|

when there's 3 of the same in a row, that means count 1 and 2 and 3 and 4 and 5 and 6

while you're on "1" play triplet, also on "and" play triplets, and so on.

then when you get to the two next to it, do a "and 7 and 8 and"  then go to the next 
that's not clear enough, i will have a youtube video up called    "The Time Has Come Tutorial".


Intro 2
e----------------------------------------------------------------|
B---10-10-10-12-14-----9-9-9-10-12-----7-7-7-9-10----5-5-5-------|
G----------------------------------------------------------------| (X2)
D----------------------------------------------------------------|
A----------------------------------------------------------------|
E----------------------------------------------------------------|

e--------------------------------------|-7-7-7-7-7-7---------------7--------|
B--------------------------------------|-------------10-10-10-10-9----------|
G-7-7-7-7-9-6-6-6-6-7-7-7-7-9-9-9-9-(X2)|-----------------------------(X4---|
D--------------------------------------|------------------------------------|
A--------------------------------------|------------------------------------|
E--------------------------------------|------------------------------------|


Then this.


Verse 1:
A
Found love beyond all reason
A                            F#m
You gave Your life Your all for me
      D                 A
And called me Yours forever
A
Caught in the mercy fallout
A
I found hope found life
          F#m
Found all I need
D                A
You're all I need


PreChorus:
        E
The time has come
   F#m                     D
To stand for all we believe in
    E
So I for one am gonna
F#m                  D
Give my praise to You (Jesus)


Chorus:
      A
Today, Today it's all or nothing
F#m
All the way
                          D
The praise goes out to You
                                   A
Yeah all the praise goes out to You
      A
Today, today I live for one thing
   F#m
To give You praise
                  D
in everything I do


Other:
F#m  D  A


Bridge:
F#m
All we are is Yours
Bm
And all we're living for
      D
Is all You are
      A         E
Is all that You are Lord


Coda:
A                  F#m
in everything I do;
                D                   A
yeah, all the praise goes out to You


Thanks to "benedictus" for the chords.

FedeSilva89

            
            
Suggest correction
Creating personal tab
Creating personal tab
You can edit any tab online and save it as your Personal.

You can edit, replace or remove any tab part or add personal notes – all changes will be seen only by you.

Personal tabs can be accessed anytime from any device, even offline.
Learn more »
comments
print report bad tab
3 comments total.
0 reply
Jammin_Joe 139 Jul 23, 2008 06:21 PM

As far as I know... On the first part of the 2nd part of the intro... Where it goes up from A (10th) to B (12th) then C# (14th), it should go up to the B and C# after you've played the G# (9th), alternatively you can play the A and B notes (when you ascend at that part) on the high e string on the 7th (A) and 9th (B) frets, makes it a little easier.

This should visually help...
e|----------7-9-------7-9--------------------|
B|-10-10-10-----9-9-9-----7-7-7-10-9-5-5-5-5-|
G|-------------------------------------------|
D|-------------------------------------------|
A|-------------------------------------------|
E|-------------------------------------------|

This song uses a lot of delay and from what I've heard they don't play it in triplets, but instead cheat by using their delay pedals smartly lol. Sneaky...

0 reply
Jammin_Joe 139 Jul 23, 2008 06:32 PM

Oh and they use a Boss DD6 I think... Of course that was a year ago that I found that out so they might well have gained some new equipment.

0 reply
takamine-g230 21 Feb 01, 2010 01:30 PM

nicely done really accurate chords but Jammin_Joe is right they use delay alot and the first guitar is pretty close more like this.

e-------9---9-----9---9-----9---9--------------
b---------------------------------10-10h12-12--
g--11-11--11---7-7--7----9-9--9----------------
d----------------------------------------------
a----------------------------------------------
E----------------------------------------------

guest
You may want to rate the tab now too:
select rating
Wanna post a correction for this tab? Suggest correction