Oops, an error
Loading. Please wait.

To Know Your Name intro tab

version 1
version 1

Intro

Whole song

12,591 views 9 this week
3 commentsread comments
1 2 3 4 5
1 last vote to show rating
add to favorites
×
Save as Personal and add changes to this tab that will be seen only by you. Learn more ›
×
You can save this tab as Personal to edit and correct it or add notes. All changes will be seen only by you. Learn more »
launch autoscroll
font size
0
reset
how to read this tab
guitar tuner
edit
Autoscroll
slow
fast
+/-
esc
set tempo
stop
Author
Difficulty
To Know Your Name by Hillsong United
Really Good song. Correct me if I'm wrong but I'm pretty sure its right.

Intro and 1st Verse

e---2-7-5-3--9-7-2-9-7--------|
B-3-------------------2---3-5-|
G-----------------------------|
D-----------------------------|
A-----------------------------|
E-----------------------------|


The precious blood of Jesus Christ redeems.
Forgiven I’m alive, restored, set free.
Your majesty resides inside of me.
Forever I believe. Forever I believe.

Rate & Comment please.  =]

            
            
Suggest correction
Creating personal tab
Creating personal tab
You can edit any tab online and save it as your Personal.

You can edit, replace or remove any tab part or add personal notes – all changes will be seen only by you.

Personal tabs can be accessed anytime from any device, even offline.
Learn more »
Give kudos to tab author, rate the tab!
1 2 3 4 5
comments
print report bad tab
3 comments total.
0 reply
Hoi Choi 36 Nov 20, 2009 05:54 PM

bro.good tab but one of the notes is badly wrong, otherwise well done.

0 reply
_supertramp_ 63 Apr 24, 2011 07:40 PM

Nice tab ;)

But I think you got something wrong, as Hoi Choi said before...

I think you should change the 9 for the 7 and the 7 for the 9...

Mmmmh a bit confusing... but I think that this should be something like this:

e---2-7-5-3--7-5-2-7-5--------|
B-3-------------------2---3-5-|
G-----------------------------|
D-----------------------------|
A-----------------------------|
E-----------------------------|

----

Otherwise an excellent tab, Gratz ;)

0 reply
_supertramp_ 63 Apr 24, 2011 07:40 PM

Nice tab ;)

But I think you got something wrong, as Hoi Choi said before...

I think you should change the 9 for the 7 and the 7 for the 9...

Mmmmh a bit confusing... but I think that this should be something like this:

e---2-7-5-3--7-5-2-7-5--------|
B-3-------------------2---3-5-|
G-----------------------------|
D-----------------------------|
A-----------------------------|
E-----------------------------|

----

Otherwise an excellent tab, Gratz ;)

guest
You may want to rate the tab now too:
select rating
Wanna post a correction for this tab? Suggest correction