Oops, an error
Loading. Please wait.

Cornerstone tab

682 views 24 this week
no commentswrite comment
1 2 3 4 5
3 more votes to show rating
add to favorites
×
Save as Personal and add changes to this tab that will be seen only by you. Learn more ›
×
You can save this tab as Personal to edit and correct it or add notes. All changes will be seen only by you. Learn more »
launch autoscroll
font size
0
reset
how to read this tab
guitar tuner
edit
Autoscroll
slow
fast
+/-
esc
set tempo
stop
Author
No Capo and standard tuning. 
This probably isnt the exact way that hillsong play this song but when i play it live on lead 
electric it sounds brilliant. The intro is played on piano but if you don't have someone on keys
this will work.                      

[Intro]
e|-----------------|
B|-1-1-1-1-1-1-1-1-|
G|-0-0-0-0-0-0-0-0-|
D|-3-3-2-2-0-0-x-x-|
A|-3-3-3-3-3-3-3-3-|
E|-----------------|
                    x6
[Verse]
   let ring
e|-0---x-----x-------------0----0--x----x----0-|
B|-1---1-----3-------------1----1--1----3----1-|
G|-0---2-----4-------------2----2--2----4----0-|
D|-2---3-----5---9-12-10-9\2----2--3----5----2-|
A|-3---3-----5-------------0----0--3----5----3-|
E|-------------------------x----0--------------|
                                               Repeat  
[Chorus]
e|-------------8-8-8-8-7-7-7-7---------------------8-8-8-8-7-7-7-7-12-12-10-10-------------8-8-8-8-7-7-7-7-8\|
B|-10-10-10-10-----------------8-8-8-8/10-10-10-10-----------------------------10-10-10-10-------------------|
G|-----------------------------------------------------------------------------------------------------------|
D|-----------------------------------------------------------------------------------------------------------|
A|-----------------------------------------------------------------------------------------------------------|
E|-----------------------------------------------------------------------------------------------------------|

[Instrumental] x2
e|-----------------|
B|-1-1-1-1-1-1-1-1-|
G|-0-0-0-0-0-0-0-0-|
D|-3-3-2-2-0-0-x-x-|
A|-3-3-3-3-3-3-3-3-|
E|-----------------|

From then on it's pretty much the same for the rest of the song.

************************************

| x   Dead note
| /   Slide up
| \   Slide down

************************************

            
            
Suggest correction
Creating personal tab
Creating personal tab
You can edit any tab online and save it as your Personal.

You can edit, replace or remove any tab part or add personal notes – all changes will be seen only by you.

Personal tabs can be accessed anytime from any device, even offline.
Learn more »
Give kudos to tab author, rate the tab!
1 2 3 4 5
comments
print report bad tab
guest
You may want to rate the tab now too:
select rating
Wanna post a correction for this tab? Suggest correction