Oops, an error
Loading. Please wait.

Open Heaven River Wild tab

version 1
version 1

Whole song

6,772 views 57 this week
1 commentread comment
1 2 3 4 5
x 5
add to favorites
×
Save as Personal and add changes to this tab that will be seen only by you. Learn more ›
×
You can save this tab as Personal to edit and correct it or add notes. All changes will be seen only by you. Learn more »
launch autoscroll
font size
0
reset
how to read this tab
guitar tuner
edit
Autoscroll
slow
fast
+/-
esc
set tempo
stop
Author
Hey guys. Open Heaven just got released and boy do I have a treat for you!

Open Heaven is a Keys driven song that journeys into this big anthem those at Conference would Identify with.

Other than the intro, 2 distinct parts for EG are during Chorus "Holy Spirit Rain" and the 
Bridge / built up Chorus 2 "Oh Holy Spirit" / "Living Water" 

I covered most of the bases, but I am aware I might have missed out one or two fills/licks, but it should 
suffice.

Be blessed guys. Feedback is welcome. Let's help each other out. =)

[Intro / Before verse 2] "Dreams and visions of the Son"
e|---------------------------------------------------------------5----|
B|----5-----5-----5-----5-----5-----5-----5-----5-------5-----8-------|
G|-------7-----7-----7-----7-----7-----7-----7-----7-------7----------|
D|--------------------------------------------------------------------|
A|--------------------------------------------------------------------|
E|--------------------------------------------------------------------|

[Note] For most of the song you're actually holding back with clean tone doing either ambient lines or single
note swells letting the keys take over depending on your band setup. 

[Chorus 1 / outro]
e|------------------------------------------------------------|
B|----5-----5-----3-----6-----5-----5-------------------------|
G|-------5-----5-----------------5------5--h4--p5--4----------|
D|-----------------------------------------------------7---5--|
A|------------------------------------------------------------|
E|------------------------------------------------------------|

[Chorus 2] (First time)(Reverb)(Tap Delay)
e|---------------------------|
B|---------------------------|
G|---------------------------|
D|----10----9----10----9--7--|
A|---------------------------|
E|---------------------------|

[Chorus 2] (second time when building up)(You can turn off your delay here)
e|----------------------------------------------------------------|
B|----------------------------------------------------------------|
G|----------------------------------------------------------------|
D|----10--10--10--14--9--9--9--12--10--5--10--9-10h-9-7--7--7--7--|
A|----------------------------------------------------------------|
E|----------------------------------------------------------------|

[Bridge] "Living Water" (boost)
e|---------------------------------------------------------|
B|---------------------------------------------------------|
G|-----5--5--5--9--4--4--4--7--5--0--5--4-5h-4-2--2--2--2--|
D|---------------------------------------------------------|
A|---------------------------------------------------------|
E|---------------------------------------------------------|

[Chorus 2] (vocals octave up)(boost) 
e|-------------------------------------------------------------------------|
B|----13--13--13--17--12--12--12--15--13--10--13--12-13-12-10--10--10--10--|
G|-------------------------------------------------------------------------|
D|-------------------------------------------------------------------------|
A|-------------------------------------------------------------------------|
E|-------------------------------------------------------------------------|

[Solo + Chorus 2 strong] (stack drive)
e|-----------------------------------------------------------------------------------------------------|
B|----13-13-13-13-13-13-s17-17-s12-12-12-12-12-12-12-12-13-13-13-13-13-13-12-12-10-10-10-10-10-10-10-10|
G|-----------------------------------------------------------------------------------------------------|
D|-----------------------------------------------------------------------------------------------------|
A|-----------------------------------------------------------------------------------------------------|
E|-----------------------------------------------------------------------------------------------------|

[UPDATE] I reworked the intro and chorus 1 so you won't need to run around as much. I also identified the 
variations of the latter line that journeys properly now from Chorus 2 to Bridge, to strong Chorus 2. 
I hope it helps.

That's all for now,

Be blessed guys. =)x

************************************

| h  Hammer-on
| p  Pull-off
| s  Slide

************************************

            
            
Suggest correction
Creating personal tab
Creating personal tab
You can edit any tab online and save it as your Personal.

You can edit, replace or remove any tab part or add personal notes – all changes will be seen only by you.

Personal tabs can be accessed anytime from any device, even offline.
Learn more »
comments
print report bad tab
1 comment total.
+1 reply
bearbear12345 988 Oct 23, 2015 05:34 PM

Great job!

guest
You may want to rate the tab now too:
select rating
Wanna post a correction for this tab? Suggest correction