Oops, an error
Loading. Please wait.

Sinking Deep tab

version 2
version 2

Whole song

790 views 3 this week
no commentswrite comment
1 2 3 4 5
3 more votes to show rating
add to favorites
×
Save as Personal and add changes to this tab that will be seen only by you. Learn more ›
×
You can save this tab as Personal to edit and correct it or add notes. All changes will be seen only by you. Learn more »
launch autoscroll
font size
0
reset
how to read this tab
guitar tuner
edit
Autoscroll
slow
fast
+/-
esc
set tempo
stop
-------------------------------------------------------------------------------
                   SINKING DEEP - Hillsong Young and Free
-------------------------------------------------------------------------------
Tabbed by: JohnnySZS

CAPO 5

Tuning: Standard

Video: http://www.youtube.com/watch?v=UruRQwI8pRE

Piano part written for guitar, repeat parts as necessary
Not all lyrics typed, just some to guide timing
Written by ear from the video
-------------------------------------------------------------------------------


INTRO / VERSE 1

   E                       E/G#     E                       E/G$  
e|---------------------------------------------------------------------------|
B|---------------------------------------------------------------------------|
G|-----1-----1-----1-----1-----1--------1-----1-----1-----1-----1------------|
D|---2-----2-----2-----2-----2--------2-----2-----2-----2-----2--------------|
A|-2-----2-----2-----2--------------2-----2-----2-----2----------------------|
E|-0-----0-----0-----0-----4--------0-----0-----0-----0-----4----------------|

   Standing here in your presence    in a   grace  so    relentless


   Asus2             Bsus4      Asus2             B
e|---------------------------------------------------------------------------|
B|-----0-----0-----0----------------0-----0-----0----------------------------|
G|-------------------------1--------------------------2---2p1----------------|
D|---2-----2-----2-----4----------2-----2-----2-----4------------------------|
A|-0-----0-----0-----0----------0-----0-----0-----0-----0--------------------|
E|---------------------------------------------------------------------------| Repeat

    I    am   won              by  perfect    love


CHORUS

   F#m7            E/G#            E              B
e|---------------------------------------------------------------------------|
B|-----5-----5---------5-----5---------5-----5---------4-----4---------------|
G|-----2-----2---2-----4-----4---------4-----4---------4-----4---------------|
D|-------------------------------2---------------2---4-----4-----4-----------|
A|---4-----4---------2-----2---------2-----2---2---2-----2-----2-------------|
E|-2-----2-----2---4-----4-----4---0-----0-----------------------------------|

I'm wide      awake               drawing close   stirred by grace


   F#m7            E/G#            B
e|---------------------------------------------------------------------------|
B|-----5-----5---------5-----5---------4-----4---------4-----4---------------|
G|-----2-----2---2-----4-----4---------4-----4---------4-----4---------------|
D|-------------------------------2---4-----4-----4---4-----4-----4-----------|
A|---4-----4---------2-----2-------------------------------------------------|
E|-2-----2-----2---4-----4-----4---2-----2-----2---2-----2-----2-------------|

And all          my heart       is yours


   F#m7            Emaj7/G#            E              B
e|---------------------------------------------------------------------------|
B|-----5-----5---------4-----4---------0-----0-------------------------------|
G|-----2-----2---2-----4-----4---------1-----1---------4-----4---------------|
D|-------------------------------6---------------2---4-----4-----4-----------|
A|---4-----4---------6-----6---6-----2-----2-------2-----2-----2-------------|
E|-2-----2-----2---4-----4---------0-----0-----0-----------------------------|

All fear           removed          I breathe you in I lean into


   A/C#
e|---------------------------------------------------------------------------|
B|---------------------------------------------------------------------------|
G|---------------------------------------------------------------------------|
D|-2~-----------2---2---2---2~-------1/2-------------------------------------|
A|-4~-----------4---4---4---4~---2h4-----------------------------------------|
E|-0~-----------0---0---0---0~-----------------------------------------------|

  Your love                Oh               your love


VERSE 2

   E                       E/G#     E                       E/G$  
e|---------------------------------------------------------------------------|
B|-----0-----0-----0-----0-----0--------0-----0-----0-----0-----0------------|
G|-----1-----1-----1-----1-----1--------1-----1-----1-----1-----1------------|
D|---2-----2-----2-----2-----2--------2-----2-----2-----2-----2--------------|
A|---------------------------------------------------------------------------|
E|-0-----0-----0-----0-----4--------0-----0-----0-----0-----4----------------|

 When I'm lost you   pursue me      lift my head to see your glory

   Asus2              Bsus4        Asus2            B
e|-----0-----0-----0------------------0-----0-----0--------------------------|
B|-----0-----0-----0------------------0-----0-----0--------------------------|
G|-----2-----2-----2-----------1------2-----2-----2-----2---2p1--------------|
D|---2-----2-----2-----2h4---4------2-----2-----2-----4----------------------|
A|-0-----0-----0-----0-----0------0-----0-----0-----0-----0-----0------------|
E|---------------------------------------------------------------------------| Repeat

Lord of all                          so           beautiful


BRIDGE

   E                F#m              E/G#             A/E
e|---------------------------------------------------------------------------|
B|----0----------------0----------------0-------------------0----------------|
G|-------1----2-1---------1----2-1---------1----2-1------1-------------------|
D|-2--------------4-2--------------4-2--------------4-4-----2----------------|
A|---------------------------------------------------------------------------|
E|-0----------------2----------------4----------------0----------------------| Repeat a few times...

  Your love       washing over       all I seek       everything


   E                F#m              E/G#             A/E   Asus2
e|----------------------------------------------------------0----0-0-0-------|
B|----0----------------0----------------0-------------------0----0-0-0-------|
G|-------1----2-1---------1----2-1---------1----2-1------1--2----2-2-2-------|
D|-2--------------4-2--------------4-2--------------4-4----------------------|
A|---------------------------------------------------------------------------|
E|-0----------------2----------------4----------------0-----0----0-0-0-------|

   Jesus            one desire       only cry               all my life


   E             Emaj7   F#m           F#m6    E/G#
e|-0---0---0---0---0-0--0---0---0---0---0-0--0---0---0---0--0-0--------------|
B|-0---4---0---4---0-4--0---4---0---4---0-4--0---4---0---4--0-4--------------|
G|-1---1---1---1---1-1--2---2---2---2---2-2--4---4---4---4--4-4--------------|
D|---------------------------------------------------------------------------|
A|---------------------------------------------------------------------------|
E|-0---0---0---0---0-0--2---2---2---2---2-2--4---4---4---4--4-4--------------|

 Your love   is washing over         your face is all    hear my


   Bsus4   B
e|---------------------------------------------------------------------------|
B|-5---5---------------------------------------------------------------------|
G|-4---4---4---4-----1-------------------------------------------------------|
D|-4---4---4---4---4---------------------------------------------------------|
A|---------------------------------------------------------------------------|
E|-2---2---2---2-------------------------------------------------------------| Repeat

My only cry




************************************

| /   slide up
| \   slide down
| h   hammer-on
| p   pull-off
| ~   vibrato

************************************

            
            
Suggest correction
Creating personal tab
Creating personal tab
You can edit any tab online and save it as your Personal.

You can edit, replace or remove any tab part or add personal notes – all changes will be seen only by you.

Personal tabs can be accessed anytime from any device, even offline.
Learn more »
Give kudos to tab author, rate the tab!
1 2 3 4 5
comments
print report bad tab
guest
You may want to rate the tab now too:
select rating
Wanna post a correction for this tab? Suggest correction