Oops, an error
Loading. Please wait.

Wake tab

version 4
version 4

Whole song

Interactive

671 views 1 this week
no commentswrite comment
1 2 3 4 5
3 more votes to show rating
add to favorites
×
Save as Personal and add changes to this tab that will be seen only by you. Learn more ›
×
You can save this tab as Personal to edit and correct it or add notes. All changes will be seen only by you. Learn more »
launch autoscroll
font size
0
reset
how to read this tab
guitar tuner
edit
Autoscroll
slow
fast
+/-
esc
set tempo
stop
Author
Difficulty
intermediate
-----------------------------------------------------------------------------
Wake (Key of G) – Hillsong Young and Free
-----------------------------------------------------------------------------
Tabbed by: Kyle Wright
E-mail: nerdguitarist@me.com

Pretty straight forward song. It should be noted that on the live version the guitar plays the 
chord progression
muted throughout the first verse. Also, I added the BPM to the tab if you want to use delay.
 It sounds fine to 
me with or without, it is up to you. 

Tuning: Standard
BPM: 118

The whole song is the same chords progression: C D Bm Em

Intro: 
e|----------------------------------------------------------------------------------|
B|----------------------------------------------------------------------------------|
G|----------------------------------------------------------------------------------|
D|-0-0-0-0-0-0-0--0—0---0-0-0-0-0-0-0-0------0-0-0-0-0-0-0--0--0--0--0--0--0--0--0--|
A|-7-9-9-7-9-9-12-12-12-5-5-4-4-2-2-0-0-(x3)-7-9-9-7-9-9-12-12-12-14-14-16-16-17-17-|
E|----------------------------------------------------------------------------------|

Pre-chorus: 
e|-------------------------------------------------------------------------|
B|-15--15--15--15--15--15--13--12-13---------------------------------------|
G|---12--12--12--12--12--12--12-----(x4)-----------------------------------|
D|-------------------------------------------------------------------------|
A|-------------------------------------------------------------------------|
E|-------------------------------------------------------------------------|

Chorus/Instrumental 2: Listen to the song for chord change timing 
e|-------------------------------------------------------------------------|
B|-5------7------3------8--------------------------------------------------|
G|-5------7------4------9--------------------------------------------------|
D|-5-(x8)-7-(x8)-4-(x8)-9-(x8)---------------------------------------------|
A|-------------------------------------------------------------------------|
E|-------------------------------------------------------------------------|

Bridge: Listen to the song for chord change timing
e|-------------------------------------------------------------------------|
B|-5~--7~--3~--8~----------------------------------------------------------|
G|-5~--7~--4~--9~----------------------------------------------------------|
D|-5~--7~--4~--9~-(x4)-----------------------------------------------------|
A|-------------------------------------------------------------------------|
E|-------------------------------------------------------------------------|

Order:
Intro
Verse 1- drop out
Pre-chorus
Instrumental- Chorus chords
Chorus x2
Intro
Verse 2- Play intro throughout
Pre-chorus
Instrumental- Chorus chords
Chorus x2
Instrumental 3- Bridge chord progression
Bridge
Pre-chorus
Instrumental- Chorus chords
Chorus x2
Intro

************************************
| ~   Let ring
************************************

            
            
Suggest correction
Creating personal tab
Creating personal tab
You can edit any tab online and save it as your Personal.

You can edit, replace or remove any tab part or add personal notes – all changes will be seen only by you.

Personal tabs can be accessed anytime from any device, even offline.
Learn more »
Give kudos to tab author, rate the tab!
1 2 3 4 5
comments
print report bad tab
guest
You may want to rate the tab now too:
select rating
Wanna post a correction for this tab? Suggest correction