Oops, an error
Loading. Please wait.

Hosanna tab

version 4
version 4

Whole song

Interactive

70 views 1 this week
no commentswrite comment
1 2 3 4 5
3 more votes to show rating
add to favorites
×
Save as Personal and add changes to this tab that will be seen only by you. Learn more ›
×
You can save this tab as Personal to edit and correct it or add notes. All changes will be seen only by you. Learn more »
launch autoscroll
font size
0
reset
how to read this tab
guitar tuner
edit
Autoscroll
slow
fast
+/-
esc
set tempo
stop
Author
Difficulty
intermediate
-------------------------------------------------------------------------------
                             Hosanna - Hillsong Global
-------------------------------------------------------------------------------
Album: Hillsong Global
Tabbed by: andrewbishop

Tuning: Standard

Heard this different version of Hosanna, totally like the guitar parts, kinda brings new texture to the song.
The songs consists of the parts below and of course the chords, but here just the specific eguitar parts,
chords you will find on any website.

Intro:
e|---------------------------------------------------------------------------|
B|--14-----------16--------------------17------12--16------------------------|
G|--13---------------------11-13----13-------13------------------------------|
D|--11------11/14-----11-13-------14-------11--------------------------------|
A|---------------------------------------------------------------------------|
E|---------------------------------------------------------------------------|

e|------------------------------------------14-------------------------------|
B|--14-----------16--------------------17---14-------------------------------|
G|--13---------------------11-13----13---------------------------------------|
D|--11------11/14-----11-13-------14-----------------------------------------|
A|---------------------------------------------------------------------------|
E|---------------------------------------------------------------------------|

Verse -> Verse:
e|---------------------------------------------------------------------------|
B|--14---12---------9--------------------------------------------------------|
G|--13-----11-13----9--------------------------------------------------------|
D|--11--------------9--------------------------------------------------------|
A|---------------------------------------------------------------------------|
E|---------------------------------------------------------------------------|

Chorus: use some slightly notes from 


Bridge -> Solo:
e|---------------------------------------------------------------------------|
B|---14--------16-------17-------19------------------------------------------|
G|---13--------------------------------------Solo!---------------------------|
D|---11---11/13----13/14----14/16--------------------------------------------|
A|---------------------------------------------------------------------------|
E|---------------------------------------------------------------------------|
Can't really figure out the solo, I play somewhere around fret 14 and 16.

Bridge -> Bridge:
e|---------------------------------------------------------------------------|
B|--14---------16---------17---------19---------21---------------------------|
G|--x--(x4)----x--(x4)----x--(x4)----x--(x4)----x--(x16)---------------------|
D|--11---------13---------14---------16---------18---------------------------|
A|---------------------------------------------------------------------------|
E|---------------------------------------------------------------------------|

Outro:
e|---------------------------------------------------------------------------|
B|---------------------------------------------------------------12----------|
G|--13-13-11-13-----13-13-11--13/15\13----13-13-11-13----13-11/13------------|
D|---------------------------------------------------------------------------|
A|---------------------------------------------------------------------------|
E|---------------------------------------------------------------------------|


For this song I´m using:
Walrus Audio - Deep Six
Visual Sound VSXO
Strymon Timeline // Dotted 8th



god bless


            
            
Suggest correction
Creating personal tab
Creating personal tab
You can edit any tab online and save it as your Personal.

You can edit, replace or remove any tab part or add personal notes – all changes will be seen only by you.

Personal tabs can be accessed anytime from any device, even offline.
Learn more »
Give kudos to tab author, rate the tab!
1 2 3 4 5
comments
print report bad tab
guest
You may want to rate the tab now too:
select rating
Wanna post a correction for this tab? Suggest correction