Oops, an error
Loading. Please wait.

Tell The World bass

version 3
version 3

Whole song

Interactive

3,555 views 1 this week
no commentswrite comment
1 2 3 4 5
1 last vote to show rating
add to favorites
×
Save as Personal and add changes to this tab that will be seen only by you. Learn more ›
×
You can save this tab as Personal to edit and correct it or add notes. All changes will be seen only by you. Learn more »
launch autoscroll
font size
0
reset
guitar tuner
edit
Autoscroll
slow
fast
+/-
esc
set tempo
stop
Author
Difficulty
-------------------------------------------------------------------------------
			   Tell The World - Hillsong
-------------------------------------------------------------------------------


Tabbed By : Young Bassist15
e-mail: will3894@gmail.com

Tuning:Standard EADG


Intro:x4
G|----------------------------------|
D|----------------------------------|
A|--9-9-9-7-7-7-4-4-5-5-5-4-4-4-0-0-|
E|----------------------------------|


Verse 1:x7
G|----------------------------------|
D|----------------------------------|
A|--9-9-9-7-7-7-4-4-5-5-5-4-4-4-0-0-|
E|----------------------------------|


Pre-Chorus:
G|----------------------------------|
D|----------------------------------|
A|--9-9-9-7-7-7-4-4-2-2-2-2-5-5-5-5-|
E|----------------------------------|


Chorus:x2
G|-------------------------------------------------------------------------|
D|-------------------------------------------------------------------------|
A|--0---0-0-0-0-0----7---7-7-7-7-7----9---9-9-9-9-9------------------------|
E|-----------------------------------------------------10---10-10-10-10-10-|


Pre-Verse:x2
G|----------------------------------|
D|----------------------------------|
A|--9-9-9-7-7-7-4-4-5-5-5-4-4-4-0-0-|
E|----------------------------------|


Verse 2:x7
G|----------------------------------|
D|----------------------------------|
A|--9-9-9-7-7-7-4-4-5-5-5-4-4-4-0-0-|
E|----------------------------------|


Pre-Chorus:
G|----------------------------------|
D|----------------------------------|
A|--9-9-9-7-7-7-4-4-2-2-2-2-5-5-5-5-|
E|----------------------------------|


Chorus:x3 Play Three times and then play the part below this.
G|---------------------------------------------------------------------|
D|---------------------------------------------------------------------|
A|--0---0-0-0-0-0----------------------------------------5---5-5-5-5-5-|
E|-------------------0---0-0-0-0-0-0----2---2-2-2-2-2------------------|


G|-------------------------------------------------------------------------|
D|-------------------------------------------------------------------------|
A|--0---0-0-0-0-0----------------------------------------5---5-5-5-5-5-----|
E|-------------------0---0-0-0-0-0-0----2---2-2-2-2-2------------------5/\-|


Bridge:x4 Only play the side down part the first time
G|----------------------------------------------------------------------|
D|----------------------------------------------------------------------|
A|--12\-0-0-0-0-0-0-0-0-2-2-2-2-2-2-2-2-----------------5-5-5-5-5-5-5-5-|
E|--------------------------------------2-2-2-2-2-2-2-2-----------------|


Ending:x3 PLay this part three times then go to the next one.
G|-------------------------------------------------------------------------|
D|-------------------------------------------------------------------------|
A|--0---0-0-0-0-0----7---7-7-7-7-7----9---9-9-9-9-9------------------------|
E|-----------------------------------------------------10---10-10-10-10-10-|


G|------------------------------------------------------------------------|
D|------------------------------------------------------------------------|
A|-----------------------------------------------------5---5-5-5-5-5------|
E|--5---5-5-5-5-5----0---0-0-0-0-0----2---2-2-2-2-2-----------------------|


  x3 Playthis part three times then play the last part.
G|------------------------------------------------------------------|
D|------------------------------------------------------------------|
A|--0-0-0-0-0-0-0-0-2-2-2-2-2-2-2-2-9-9-9-9-9-9-9-9-5-5-5-5-5-5-5-5-|
E|------------------------------------------------------------------|

                                                      S
G|------------------------------------------------------|
D|------------------------------------------------------|
A|--0-0-0-0-0-0-0-0-2-2-2-2-2-2-2-2-9-9-9-9-9-9-9-9---5-|
E|------------------------------------------------------|


And if you want the big rock ending then here you go.
G|-----------------------------------------------------------------------------------------|
D|--------------------------------------------------------------------------7-----7--------|
A|--5-5-5-5-5-5-5-5-5-5-5-5-5-5-5-5-5-5-5-5-5-5-5-5-5-5-5-5-5-5-7-7-7-5-5-5---5-5---5-5-5--|
E|-----------------------------------------------------------------------------------------|


G|----------------------------------------------------------|
D|------------7-----7-----7---------------------------------|
A|--5-5-5-5-5---5-5---5-5---5-5-5-5-5-5-5-5-5-5-5-5-5-5/-17-|
E|----------------------------------------------------------|

-------------------------------------------------------|
-------------------------------------------------------|
-17-17-17-17-17-17-17-17---17---17---17\-12-12-12\-5---|
-------------------------------------------------------|

| /  slide up
| \  slide down
| h  hammer-on
| p  pull-off
| ~  vibrato
| +  harmonic
| x  Mute note
| /\ Slide Up Then Down Quickly
| S  Sustain(Hold) Note
===============================================================================

This tab is extremely close to being perfect. The octaves in thee second chorus might be 
but it sounds 100% right.

            
            
Suggest correction
Creating personal tab
Creating personal tab
You can edit any tab online and save it as your Personal.

You can edit, replace or remove any tab part or add personal notes – all changes will be seen only by you.

Personal tabs can be accessed anytime from any device, even offline.
Learn more »
Give kudos to tab author, rate the tab!
1 2 3 4 5
comments
print report bad tab
guest
You may want to rate the tab now too:
select rating
Wanna post a correction for this tab? Suggest correction