Oops, an error
Loading. Please wait.

What A Great Night tab

4,320 views 3 this week
5 commentsread comments
1 2 3 4 5
x 5
add to favorites
×
Save as Personal and add changes to this tab that will be seen only by you. Learn more ›
×
You can save this tab as Personal to edit and correct it or add notes. All changes will be seen only by you. Learn more »
launch autoscroll
font size
0
reset
how to read this tab
guitar tuner
edit
Autoscroll
slow
fast
+/-
esc
set tempo
stop
Author
Difficulty
----------------------------------------------------------------------------
                             What A Great Night - Hilltop Hoods
---------------------------------------------------------------------------
Tabbed by: es_kraken
Email: es_kraken@hotmail.com

Tuning: standard

this song is really easy to play, the rhythm is really simple too
mainly cos its a hip-hop song...

e|----------------------------------------------|
B|----------------------------------------------|
G|----------------------------------------------|
D|------------9999x--------1111-----------------|
A|-11111111x--7777x--99999-9-9-1111-------------|
E|-9-9-9-9-x---------77777-----9-9--------------|

just keep playin this, and every second one goes

e|----------------------------------------------|
B|----------------------------------------------|
G|----------------------------------------------|
D|------------9999x--------1111-----------------|
A|-11111111x--7777x--99999-9-9-1111x-11-11------|
E|-9-9-9-9-x---------77777-----9-9-x-9--9-------|

with a bit of a pause to the last two chords
have fun!
============================================================================

            
            
Suggest correction
Creating personal tab
Creating personal tab
You can edit any tab online and save it as your Personal.

You can edit, replace or remove any tab part or add personal notes – all changes will be seen only by you.

Personal tabs can be accessed anytime from any device, even offline.
Learn more »
comments
print report bad tab
5 comments total. Showing first comments.
-1 reply
leakeg 56 Apr 01, 2008 05:38 PM

exactly right!!! cheers!

-1 reply
rynamo-dynamo 10 Oct 05, 2008 08:46 PM

im probabley wrong on this, but, shouldnt it be
e|----------------------------------------------|
B|----------------------------------------------|
G|----------------------------------------------|
D|------------9999x--------1111-----------------|
A|-11111111x--7777x--99999-9-9-1111-------------|
E|-9-9-9-9-x---------77777-----9-9--------------|

i dunno though no offence!
your already a better tabber than me

-1 reply
es_kraken 31 Oct 23, 2008 12:39 AM

yeh sorry all! rynamo-dynamo is right, lapse of concentration =S keep it real y'all

guest
You may want to rate the tab now too:
select rating
Wanna post a correction for this tab? Suggest correction