Oops, an error
Loading. Please wait.

Cyanide Sun intro tab

version 1
version 1

Intro

Interactive

by HIM
3,218 views 3 this week
3 commentsread comments
1 2 3 4 5
x 4
add to favorites
×
Save as Personal and add changes to this tab that will be seen only by you. Learn more ›
×
You can save this tab as Personal to edit and correct it or add notes. All changes will be seen only by you. Learn more »
launch autoscroll
font size
0
reset
how to read this tab
guitar tuner
backing track
0:00
0:00
edit
Autoscroll
slow
fast
+/-
esc
set tempo
stop
Author
Band: -H-I-M-
Song: Cyanide sun (intro)
Album: Venus Doom
Tab by: bEbE! bebe_4048@hotmail.com

Beautiful song..

E|-----------|---------------|-------|
B|-----------|---------------|-------|
G|-----------|---------------|-------|
D|-6-6-------|-6-6-----------|-2~-4~-|
A|-4-4-----6-|-4-4-----6b(7)-|-2~-2~-|
E|-4-4-7h9---|-4-4-7h9-------|-0~-2~-|

Then:
E|------------------------------|
B|------------------------------|
G|-8-6--------------------------|
D|-----6--4-2--2-4/6-4-2-2-4-6~-|
A|------------------------------|
E|------------------------------|

I'll try to tab the whole song later..
PEACE!

            
            
Suggest correction
Creating personal tab
Creating personal tab
You can edit any tab online and save it as your Personal.

You can edit, replace or remove any tab part or add personal notes – all changes will be seen only by you.

Personal tabs can be accessed anytime from any device, even offline.
Learn more »
comments
print report bad tab
3 comments total.
0 reply
Dean-Junkie 10 Sep 29, 2007 10:56 PM

E|-----------|---------------|-------|
B|-----------|---------------|-------|
G|-----------|---------------|-------|
D|-4-4-------|-4-4-----------|-2~-4~-|
A|-4-4-----6-|-4-4-----6b(7)-|-2~-2~-|
E|-----7h9---|-----7h9-------|-0~-2~-|


instead of D|-4-4 D|-6-6
A|-4-4......... A|-4-4
E|-4-4

Nice tab for the other parts tho...this tab is really good i instantly took my guitar to take the parts by ear it reminded me so much of those chords linde hit alot during GLS666

0 reply
Dean-Junkie 10 Sep 29, 2007 10:57 PM

hmm,the texture came wrong....umm....446....446,there XD

0 reply
Gothica69 10 Jan 05, 2008 01:56 PM

No guys, it's just in the wrong tuning.
GLS666: 6 stringed gtr: B-tuning.
Razorblade Romance: Same as GLS666
Deep
Shadows and Brilliant Highlights: Drop C#
Love Metal: Not sure, but Drop C#
Dark Light: Drop C tuning
Venus Doom: 6
stringed gtr B tuning (Same as GLS666)

I think this is the right tuning for the albums.
I think the B tunings were
the best for Lizzy.
The creepy sounds in the Gls666, the raw, and deep toned riffs in the Razorblade Romance, and the
far technicaly best guitar parts and solos in the Venus Doom, just listen to the last 1 mintue in the Cyanide Sun. :)

guest
You may want to rate the tab now too:
select rating
Wanna post a correction for this tab? Suggest correction