Oops, an error
Loading. Please wait.

Dead Lovers Lane tab

version 2
version 2

Whole song

Interactive

by HIM
1,201 views 6 this week
2 commentsread comments
1 2 3 4 5
2 more votes to show rating
add to favorites
×
Save as Personal and add changes to this tab that will be seen only by you. Learn more ›
×
You can save this tab as Personal to edit and correct it or add notes. All changes will be seen only by you. Learn more »
launch autoscroll
font size
0
reset
how to read this tab
guitar tuner
edit
Autoscroll
slow
fast
+/-
esc
set tempo
stop
Author
Difficulty
stansard tuning

hope you enjoy!
can't work out the solo but i got the rest.


e-----------------------------------------------------|
b-----------------------------------------------------|
g------------------------------------------------  ---|I
d-----------5-7-----------5-7-------10-9-----9--------|    I
a------5-7--5-7------5-7--5-7--5-7--10-9-10--9--------|    I
E---0--5-7-------0---5-7-------5-7-------10-----------|    I
                                                     I
                                                     I--- X2
                                                     I
e-----------------------------------------------------|    I
b-----------------------------------------------------|    I
g-----------------------------------------------------|    I
d-----------5-7-----------5-7-------10-9---------  ---|I
a------5-7--5-7------5-7--5-7--5-7--10-9--------------|
E---0--5-7-------0---5-7-------5-7-------10^~~--------|


----------------------------------------------------------------------------

  Em  D

  Em  D

  C   G   Am

  G   C   D

----------------------------------------------------------------------------

(CHORUS)

e---------------|
b---------------|
g----77--77-----|
d----77--77-----|
a----55--55-----|
E----55--55-----|


e------------------------------------------------------------------|
b------------------------------------------------------------------|
g------------------------------------------------------------------|
d---2-22222222---------------------2-22222222----------------------|
a---2-22222222---------------------2-22222222----------------------|
E---0-00000000---0>>>>>10-10-10~~~-0-00000000---0>>>>>10-10-10~~~--|

e------------------------------------------------------------------|
b------------------------------------------------------------------|
g------------------------------------------------------------------|
d---5-55---7-77---9-99---12-1212---5~~~----------------------------|
a---3-33---5-55---7-77---10-1010---3~~~----------------------------|
E---3-33---5-55---7-77---10-1010---3~~~---2-222232~~~--------------|

e------------------------------------------------------------------|
b------------------------------------------------------------------|
g------------------------------------------------------------------|
d---2-22222222---------------------2-22222222----------------------|
a---2-22222222---------------------2-22222222----------------------|
E---0-00000000---0>>>>>10-10-10~~~-0-00000000---0>>>>>10-10-10~~~--|

e------------------------------------------------------------------|
b------------------------------------------------------------------|
g------------------------------------------------------------------|
d---5-55---7-77---9-99---12-1212---5~~~----------------------------|
a---3-33---5-55---7-77---10-1010---3~~~----------------------------|
E---3-33---5-55---7-77---10-1010---3~~~---2-222232~~~--------------|


----------------------------------------------------------------------------


e-----------------------------------------------------|
b-----------------------------------------------------|
g------------------------------------------------  ---|I
d-----------5-7-----------5-7-------10-9-----9--------|    I
a------5-7--5-7------5-7--5-7--5-7--10-9-10--9--------|    I
E---0--5-7-------0---5-7-------5-7-------10-----------|    I
                                                     I
                                                     I--- X2
                                                     I
e-----------------------------------------------------|    I
b-----------------------------------------------------|    I
g-----------------------------------------------------|    I
d-----------5-7-----------5-7-------10-9---------  ---|I
a------5-7--5-7------5-7--5-7--5-7--10-9--------------|
E---0--5-7-------0---5-7-------5-7-------10^~~--------|

----------------------------------------------------------------------------


  Em  D

  Em  D

  C   G   Am

  G   C   D


  (PRE-CHORUS)

e--------------------------------------------------------------------|
b--------------------------------------------------------------------|
g--------------------------------------------------------------------|
d-----------------------22222222--77777777-22222222-77777777---------|
a---<<<<<<<<<<<<<<<<<---22222222--55555555-22222222-55555555---------|
E---<<<<<<<<<<<<<<<<<---00000000--55555555-00000000-55555555---------|
      (pick scrape)     {--------------palm mute---------------------|

e--------------------------------------------------------------------|
b--------------------------------------------------------------------|
g--------------------------------------------------------------------|
d---5555555555---5555555555---7777777777---5555555555---55555555-----|
a---3333333333---5555555555---7777777777---5555555555---33333333-----|
E---3333333333---3333333333---5555555555---3333333333---33333333-----|
   {------------------------palm mute--------------------------------|

----------------------------------------------------------------------------


 (CHORUS)

e---------------|
b---------------|
g----77--77-----|
d----77--77-----|
a----55--55-----|
E----55--55-----|


e------------------------------------------------------------------|
b------------------------------------------------------------------|
g------------------------------------------------------------------|
d---2-22222222---------------------2-22222222----------------------|
a---2-22222222---------------------2-22222222----------------------|
E---0-00000000---0>>>>>10-10-10~~~-0-00000000---0>>>>>10-10-10~~~--|

e------------------------------------------------------------------|
b------------------------------------------------------------------|
g------------------------------------------------------------------|
d---5-55---7-77---9-99---12-1212---5~~~----------------------------|
a---3-33---5-55---7-77---10-1010---3~~~----------------------------|
E---3-33---5-55---7-77---10-1010---3~~~---2-222232~~~--------------|

----------------------------------------------------------------------------


                (before solo)

e----------------------------------------------------------|
b----------------------------------------------------------|
g----------------------------------------------------------|   x2
d---------------------7---------------------2--------------|
a---2-44-44---2-4444--7---2-44-44---2-4444--2--------------|
E---0-22-22---0-2222--5---0-22-22---0-2222--0--------------|


                (during solo)


e----------------------------------------------------[[-------]]
b----------------------------------------------------[[-------]]
g----------------------------------------------------[[-------]]
d---4-66-66---4-6666--9---4-66-66---4-6666--4----x2--[[---2~~-]]
a---4-66-66---4-6666--9---4-66-66---4-6666--4--------[[---2~~-]]
E---2-44-44---2-4444--7---2-44-44---2-4444--2--------[[---0~~-]]

                (after solo)


e----------------------------------------------------[[------------------|]
b----------------------------------------------------[[------------------|]
g----------------------------------------------------[[------------------|]
d------------------------------------------------x2--[[------------------|]
a---2-2-22---2-2-22---2-2-22-------------------------[[--5-2-0-3-2-0-5---|]
E---0-0-00---0-0-00---0-0-00---0-5-2-0-3-2-0-5-------[[--5-2-0-3-2-0-5---|]
    {----------------palm mute-------------------------------------------|

----------------------------------------------------------------------------

               (chorus)

e------------------------------------------------------------------|
b------------------------------------------------------------------|
g------------------------------------------------------------------|
d---2-22222222---------------------2-22222222----------------------|
a---2-22222222---------------------2-22222222----------------------|
E---0-00000000---0>>>>>10-10-10~~~-0-00000000---0>>>>>10-10-10~~~--|

e------------------------------------------------------------------|
b------------------------------------------------------------------|
g------------------------------------------------------------------|
d---5-55---7-77---9-99---12-1212---5~~~----------------------------|  x2
a---3-33---5-55---7-77---10-1010---3~~~----------------------------|
E---3-33---5-55---7-77---10-1010---3~~~---2-222232~~~--------------|


----------------------------------------------------------------------------


e------------------------------------------------|
b------------------------------------------------|
g------------------------------------------------|
d------------------------------------------------|
a-----------5-7-----------5-7-------10-9----9----|
E---0--5-7-------0---5-7-------5-7-------10------|

e------------------------------------------------|
b------------------------------------------------|
g------------------------------------------------|
d------------------------------------------------|
a-----------5-7-----------5-7-------10-9---------|
E---0--5-7-------0---5-7-------5-7-------10^~~---|

e------------------------------------------------|
b------------------------------------------------|
g------------------------------------------------|
d-----------5-7-----------5-7-------10-9-----9---|
a------5-7--5-7------5-7--5-7--5-7--10-9-10--9---|
E---0--5-7-------0---5-7-------5-7-------10------|


e------------------------------------------------------|
b------------------------------------------------------|
g------------------------------------------------------|
d-----------5-7-----------5-7-------10-9---------------|
a------5-7--5-7------5-7--5-7--5-7--10-9-10---9^~~~~---|
E---0--5-7-------0---5-7-------5-7-------10---9^~~~~---|

THE END!!!!!!

            
            
Suggest correction
Creating personal tab
Creating personal tab
You can edit any tab online and save it as your Personal.

You can edit, replace or remove any tab part or add personal notes – all changes will be seen only by you.

Personal tabs can be accessed anytime from any device, even offline.
Learn more »
Give kudos to tab author, rate the tab!
1 2 3 4 5
comments
print report bad tab
2 comments total.
0 reply
ibarro 124 Oct 06, 2007 11:24 AM

Chorus doesn't sounds pretty good

0 reply
rockinrell 10 Apr 23, 2014 03:17 PM

Just played along..your tab seems 80 to 90 percent correct

guest
You may want to rate the tab now too:
select rating
Wanna post a correction for this tab? Suggest correction