Oops, an error
Loading. Please wait.

Killing Loneliness tab

version 5
version 5

Interactive

by HIM
8,507 views 6 this week
no commentswrite comment
1 2 3 4 5
x 5
add to favorites
×
Save as Personal and add changes to this tab that will be seen only by you. Learn more ›
×
You can save this tab as Personal to edit and correct it or add notes. All changes will be seen only by you. Learn more »
launch autoscroll
font size
0
reset
how to read this tab
guitar tuner
backing track
0:00
0:00
edit
Autoscroll
slow
fast
+/-
esc
set tempo
stop
Tabbed by pieyeti21994
Tuning: Half step down [Eb,Ab,Db,Gb,Bb,Eb]
I haven't tabbed a whole song before and i don't know if this is 100% perfect but if it 
it goes well with the song anyway =] so be nice

Intro
|----------------------------------------|
|----------5----------4-------------2----|
|--------------------------------2-------|
|-------6----------4----------2----------|
|----4----------2----------0-------------|
|----------------------------------------|


|-----------------------------------------------------------------|
|-----------------------------------------------------------------|
|-----------------------------------------------------------------|
|-----------------------------------------------------------------|
|--11-11-11-11--14-14-14--9-9-9-9--6-6-6-7-7-7----6-7-7-7-6-7-6~--|
|---9--9--9--9--12-12-12--7-7-7-7--4-4-4-5-5-5----4-5-5-5-4-5-4~--|

Main Riff
|-----------------------------------------------------------------|
|-----------------------------------------------------------------|
|-----------------------------------------------------------------|
|-----------------------------------------------------------------|
|--11-11-11-11--14-14-14--9-9-9-9--6-6-6-7-7-7----6-7-7-7-6-7-9~--|
|---9--9--9--9--12-12-12--7-7-7-7--4-4-4-5-5-5----4-5-5-5-4-5-7~--|


|-----------------------------------------------------------------|
|-----------------------------------------------------------------|
|-----------------------------------------------------------------|
|-----------------------------------------------------------------|
|--11-11-11-11--14-14-14--9-9-9-9--6-6-6-7-7-7----6-7-7-7-6-7-6~--|
|---9--9--9--9--12-12-12--7-7-7-7--4-4-4-5-5-5----4-5-5-5-4-5-4~--|


Verse
|--------------------------------------------------------|
|--------------------------------------------------------|
|--------------------------------------------------------|
|--------------------------------------------------------|
|--11-11-11-11--11-11-11-11-11-11-11--11-11-11--6-6-6-6--|
|---9--9--9--9---9--9--9--9--9--9--9---9--9--9--4-4-4-4--|
    .  .  .  .   .  .  .  .  .  .  .   .  .  .  . . . .

|--------------------------------------------------------|
|--------------------------------------------------------|
|--------------------------------------------------------|
|--------------------------------------------------------|
|--6-6-6-6-6-6-6--6-6-6--4-4-4-4--4-4-4-4-4-4-4--4-4-4---|
|--4-4-4-4-4-4-4--4-4-4--2-2-2-2--2-2-2-2-2-2-2--2-2-2---|
   . . . . . . .  . . .  . . . .  . . . . . . .  . . .

|------------------------------------|
|------------------------------------|
|------------------------------------|
|------------------------------------|
|--7-7-7-7--7-7-7-7-7-7-7--7-6-------|
|--5-5-5-5--5-5-5-5-5-5-5------4~----|
   . . . .  . . . . . . .

|--------------------------------------------------------|
|--------------------------------------------------------|
|--------------------------------------------------------|
|--------------------------------------------------------|
|--11-11-11-11--11-11-11-11-11-11-11--11-11-11--6-6-6-6--|
|---9--9--9--9---9--9--9--9--9--9--9---9--9--9--4-4-4-4--|
    .  .  .  .   .  .  .  .  .  .  .   .  .  .  . . . .

|--------------------------------------------------------|
|--------------------------------------------------------|
|--------------------------------------------------------|
|--------------------------------------------------------|
|--6-6-6-6-6-6-6--6-6-6--4-4-4-4--4-4-4-4-4-4-4--4-4-4---|
|--4-4-4-4-4-4-4--4-4-4--2-2-2-2--2-2-2-2-2-2-2--2-2-2---|
   . . . . . . .  . . .  . . . .  . . . . . . .  . . .

|----------------------------|
|----------------------------|
|----------------------------|
|----------------------------|
|--7----7----7----7----9--9--|
|----5----5----5----5--7--7--|

Chorus
|----------------------------------------------------|
|----------------------------------------------------|
|----------------------------------------------------|
|----------------------------------------------------|
|--11-11-11-11-11-11-11-11--14-14-14-14-14-14-14-14--|
|---9--9--9--9--9--9--9--9--12-12-12-12-12-12-12-12--|


|-----------------------------------|
|-----------------------------------|
|-----------------------------------|
|-----------------------------------|
|--7-7-7-7-7-7-7-7-7-7-7-7-7-7-7-7--|
|--5-5-5-5-5-5-5-5-5-5-5-5-5-5-5-5--|


|---------------------------------------------------|
|---------------------------------------------------|
|---------------------------------------------------|
|---------------------------------------------------|
|--11---9---7-7---7-7---9----11---14----------------|
|---9---7---5-5---5-5---7-----9---12----------------|


|----------------------------------|
|----------------------------------|
|----------------------------------|
|----------------------------------|
|--6--6-6-6-6-6-6-6-6-6-6-6-6-6-6--|
|--4--4-4-4-4-4-4-4-4-4-4-4-4-4-4--|
      . . . . . . . . . . . . . .

Main Riff
|-----------------------------------------------------------------|
|-----------------------------------------------------------------|
|-----------------------------------------------------------------|
|-----------------------------------------------------------------|
|--11-11-11-11--14-14-14--9-9-9-9--6-6-6-7-7-7----6-7-7-7-6-7-9~--|
|---9--9--9--9--12-12-12--7-7-7-7--4-4-4-5-5-5----4-5-5-5-4-5-7~--|


|-----------------------------------------------------------------|
|-----------------------------------------------------------------|
|-----------------------------------------------------------------|
|-----------------------------------------------------------------|
|--11-11-11-11--14-14-14--9-9-9-9--6-6-6-7-7-7----6-7-7-7-6-7-6~--|
|---9--9--9--9--12-12-12--7-7-7-7--4-4-4-5-5-5----4-5-5-5-4-5-4~--|

Verse
|--------------------------------------------------------|
|--------------------------------------------------------|
|--------------------------------------------------------|
|--------------------------------------------------------|
|--11-11-11-11--11-11-11-11-11-11-11--11-11-11--6-6-6-6--|
|---9--9--9--9---9--9--9--9--9--9--9---9--9--9--4-4-4-4--|
    .  .  .  .   .  .  .  .  .  .  .   .  .  .  . . . .

|--------------------------------------------------------|
|--------------------------------------------------------|
|--------------------------------------------------------|
|--------------------------------------------------------|
|--6-6-6-6-6-6-6--6-6-6--4-4-4-4--4-4-4-4-4-4-4--4-4-4---|
|--4-4-4-4-4-4-4--4-4-4--2-2-2-2--2-2-2-2-2-2-2--2-2-2---|
   . . . . . . .  . . .  . . . .  . . . . . . .  . . .

|------------------------------------|
|------------------------------------|
|------------------------------------|
|------------------------------------|
|--7-7-7-7--7-7-7-7-7-7-7--7-6-------|
|--5-5-5-5--5-5-5-5-5-5-5------4~----|
   . . . .  . . . . . . .

|--------------------------------------------------------|
|--------------------------------------------------------|
|--------------------------------------------------------|
|--------------------------------------------------------|
|--11-11-11-11--11-11-11-11-11-11-11--11-11-11--6-6-6-6--|
|---9--9--9--9---9--9--9--9--9--9--9---9--9--9--4-4-4-4--|
    .  .  .  .   .  .  .  .  .  .  .   .  .  .  . . . .

|--------------------------------------------------------|
|--------------------------------------------------------|
|--------------------------------------------------------|
|--------------------------------------------------------|
|--6-6-6-6-6-6-6--6-6-6--4-4-4-4--4-4-4-4-4-4-4--4-4-4---|
|--4-4-4-4-4-4-4--4-4-4--2-2-2-2--2-2-2-2-2-2-2--2-2-2---|
   . . . . . . .  . . .  . . . .  . . . . . . .  . . .

|----------------------------|
|----------------------------|
|----------------------------|
|----------------------------|
|--7----7----7----7----9--9--|
|----5----5----5----5--7--7--|

Chorus
|----------------------------------------------------|
|----------------------------------------------------|
|----------------------------------------------------|
|----------------------------------------------------|
|--11-11-11-11-11-11-11-11--14-14-14-14-14-14-14-14--|
|---9--9--9--9--9--9--9--9--12-12-12-12-12-12-12-12--|


|-----------------------------------|
|-----------------------------------|
|-----------------------------------|
|-----------------------------------|
|--7-7-7-7-7-7-7-7-7-7-7-7-7-7-7-7--|
|--5-5-5-5-5-5-5-5-5-5-5-5-5-5-5-5--|


|---------------------------------------------------|
|---------------------------------------------------|
|---------------------------------------------------|
|---------------------------------------------------|
|--11---9---7-7---7-7---9----11---14----------------|
|---9---7---5-5---5-5---7-----9---12----------------|


|----------------------------------|
|----------------------------------|
|----------------------------------|
|----------------------------------|
|--6--6-6-6-6-6-6-6-6-6-6-6-6-6-6--|
|--4--4-4-4-4-4-4-4-4-4-4-4-4-4-4--|
      . . . . . . . . . . . . . .

Solo
|---------------------------------------|
|---------------------------------------|
|--------13-------13-------13-----------|
|-9-11-9-----11-9-----11-9-----11-9-11--|
|---------------------------------------|
|---------------------------------------|

|---------------------------------------|
|---------------------------------------|
|--------11-------11-------11-----------|
|-9-11-9-----11-9-----11-9-----11-9-11--|
|---------------------------------------|
|---------------------------------------|

|--------------------------------------------|
|--------------------------------------------|
|-----------13---------11---------9----------|
|-9-11-9-11----11-9-11----11-9-11---11-9-11--|
|--------------------------------------------|
|--------------------------------------------|  x2

Bridge
|----------------------------|
|----------------------------|
|----------------------------|
|----------------------------|
|--7----7----7----7----9--9--|
|----5----5----5----5--7--7--|

|-------------------------------------------------------------|
|-------------------------------------------------------------|
|-------------------------------------------------------------|
|-------------------------------------------------------------|
|--6-6-6-6--6-6-6-6-6-6-6-6-6-6-6-6-6-6--6-6-6-6-6-6-6-6-6-6--|
|--4-4-4-4--4-4-4-4-4-4-4-4-4-4-4-4-4-4--4-4-4-4-4-4-4-4-4-4--|

|----------------------------|
|----------------------------|
|----------------------------|
|----------------------------|
|--7----7----7----7----9--9--|
|----5----5----5----5--7--7--|  x2

Chorus
|----------------------------------------------------|
|----------------------------------------------------|
|----------------------------------------------------|
|----------------------------------------------------|
|--11-11-11-11-11-11-11-11--14-14-14-14-14-14-14-14--|
|---9--9--9--9--9--9--9--9--12-12-12-12-12-12-12-12--|


|-----------------------------------|
|-----------------------------------|
|-----------------------------------|
|-----------------------------------|
|--7-7-7-7-7-7-7-7-7-7-7-7-7-7-7-7--|
|--5-5-5-5-5-5-5-5-5-5-5-5-5-5-5-5--|


|---------------------------------------------------|
|---------------------------------------------------|
|---------------------------------------------------|
|---------------------------------------------------|
|--11---9---7-7---7-7---9----11---14----------------|
|---9---7---5-5---5-5---7-----9---12----------------|


|----------------------------------|
|----------------------------------|
|----------------------------------|
|----------------------------------|
|--6--6-6-6-6-6-6-6-6-6-6-6-6-6-6--|
|--4--4-4-4-4-4-4-4-4-4-4-4-4-4-4--|
      . . . . . . . . . . . . . .

Main Riff
|-----------------------------------------------------------------|
|-----------------------------------------------------------------|
|-----------------------------------------------------------------|
|-----------------------------------------------------------------|
|--11-11-11-11--14-14-14--9-9-9-9--6-6-6-7-7-7----6-7-7-7-6-7-9~--|
|---9--9--9--9--12-12-12--7-7-7-7--4-4-4-5-5-5----4-5-5-5-4-5-7~--|


|-----------------------------------------------------------------|
|-----------------------------------------------------------------|
|-----------------------------------------------------------------|
|-----------------------------------------------------------------|
|--11-11-11-11--14-14-14--9-9-9-9--6-6-6-7-7-7----6-7-7-7-6-7-6~--|
|---9--9--9--9--12-12-12--7-7-7-7--4-4-4-5-5-5----4-5-5-5-4-5-4~--|  x2

Outro
|----------------------------------------|
|----------5----------4-------------2----|
|--------------------------------2-------|
|-------6----------4----------2----------|
|----4----------2----------0-------------|
|----------------------------------------|  x2


[Key]
. Palm Mute
~ Let Ring

            
            
Suggest correction
Creating personal tab
Creating personal tab
You can edit any tab online and save it as your Personal.

You can edit, replace or remove any tab part or add personal notes – all changes will be seen only by you.

Personal tabs can be accessed anytime from any device, even offline.
Learn more »
comments
print report bad tab
guest
You may want to rate the tab now too:
select rating
Wanna post a correction for this tab? Suggest correction