Oops, an error
Loading. Please wait.
We have an official Wings Of A Butterfly tab made by UG professional guitarists. Check out the tab »
×
by HIM
16,424 views 3 this week
6 commentsread comments
1 2 3 4 5
x 7
add to favorites
×
Save as Personal and add changes to this tab that will be seen only by you. Learn more ›
×
You can save this tab as Personal to edit and correct it or add notes. All changes will be seen only by you. Learn more »
launch autoscroll
font size
0
reset
how to read this tab
guitar tuner
backing track
0:00
0:00
edit
Autoscroll
slow
fast
+/-
esc
set tempo
stop
~HIM~
"Wings of a Butterfly"
Darklight
Tabbed by: LDscholar
Email: ldscholar36@netscape.net
Tuning: Drop D

I figured out that my first submission was a half-step flat (sorry!). 
This should be perfect.
ENJOY!

. . . . = Palm Muting
h\p = Hammer-On\Pull-Off
/ = Slide Up
\ = Slide Down

*MODERATE DISTORTION THROUGHOUT*

Intro

Guitar 1                                                     {x4}
E|--------------------------------------------------------------|
B|--------------------------------------------------------------|
G|-11---11---11-9p11h9----9---9---9---9---9---9---9-7h9p7\6-----|
D|----9----9-----------12---7---7---7---7---7---7---------------|
A|--------------------------------------------------------------|
D|--------------------------------------------------------------|

E|------------------|
B|------------------|
G|-7---7---7---6---.|
D|---5---5---5---5-.|
A|------------------|
D|------------------|

Guitar 2 (can be done with one guitar)
>AFTER 1ST TIME<                           
E|--------------|
B|--------------|
G|--------------|
D|-6-6--8-------|
A|-6-6--8-------|
D|-6-6--8-------|

>AFTER 2ND TIME<                           {x2}
|---------------------------------------------|
|---------------------------------------------|
|---------------------------------------------|
|-7--7h9--9-999-4-6-7-7 Intro Riff x3

Guitar 2                                   {x3}
|---------------------------------------------|
|---------------------------------------------|
|---------------------------------------------|
|-7--7h9--9-999-4-6-7-7<-----5-4-2-222--------|
|-7--7h9--9-999-4-6-7-7CHORUS RIFF UNTIL FADE OUT

            
            
Suggest correction
Creating personal tab
Creating personal tab
You can edit any tab online and save it as your Personal.

You can edit, replace or remove any tab part or add personal notes – all changes will be seen only by you.

Personal tabs can be accessed anytime from any device, even offline.
Learn more »
comments
print report bad tab
6 comments total. Showing first comments.
0 reply
hak_hap 300 Sep 13, 2005 08:00 PM

Nice...

0 reply
andyrockers999 10 Sep 23, 2005 07:26 AM

great tab good work

0 reply
Sean_16 71 Sep 28, 2005 04:28 AM

thanks! awsume stuff!!!

guest
You may want to rate the tab now too:
select rating
Wanna post a correction for this tab? Suggest correction