Oops, an error
Loading. Please wait.
We have an official Wings Of A Butterfly tab made by UG professional guitarists. Check out the tab »
×
by HIM
7,955 views 3 this week
5 commentsread comments
1 2 3 4 5
x 5
add to favorites
×
Save as Personal and add changes to this tab that will be seen only by you. Learn more ›
×
You can save this tab as Personal to edit and correct it or add notes. All changes will be seen only by you. Learn more »
launch autoscroll
font size
0
reset
how to read this tab
guitar tuner
backing track
0:00
0:00
edit
Autoscroll
slow
fast
+/-
esc
set tempo
stop
Band: HIM
Song: Rip Out The Wings Of A Butterfly
Album: Dark light (2005)


Tuning: DROP D (D A D G B E)


----------------------------------------------------------------------
----------------------------------------------------------------------

:INTRO:
 N.C
Lead Guitar
|---------------------|-----------------------------|------------------|
|6---6--6-4h6p4-4--4-2|4--4--4--4--4--4-2h4p2-2--2-0|-2--2---2---------|\
|-----------------6---|-------------------------4---|----------------4-| |
|--8---8--------------|--6--6--6--6--6--------------|---4--4-----------| |
|---------------------|-----------------------------|------------------| | 
|---------------------|-----------------------------|------------------| |
||Rythem Guitar                                              A#5     B#5 |x2
|---------------------|-----------------------------|------------------| |
|---------------------|-----------------------------|------------------| |
|---------------------|-----------------------------|------------------| |
|---------------------|-----------------------------|---------6---6--8-| |
|---------------------|-----------------------------|---------6---6--8-|/
|---------------------|-----------------------------|---------6---6--8-|

 N.C
|---------------------|------------------------------|-----------------|
|6---6--6-4h6p4-4--4-2|4--4--4--4--4--4-2h4p2--2--2-0|-2--2----2-------|
|-----------------6---|--------------------------4---|----------------4|
|--8---8--------------|--6--6--6--6--6---------------|---4--4----------|
|---------------------|------------------------------|-----------------|
|---------------------|------------------------------|-----------------|
||B#5           D5      A#5                    A# G# G G#5     A#5
|---------------------|------------------------------|-----------------|
|---------------------|------------------------------|-----------------|
|---------------------|------------------------------|-----------------|
|-8-8-8-8-8-8---0--0--|6-6-6-6-6-6-6-6-6-6-6-6--6-4-3|-4--4-4-4-6-----6|
|-8-8-8-8-8-8---0--0--|6-6-6-6-6-6-6-6-6-6-6-6--6-4-3|-4--4-4-4-6-----6|
|-8-8-8-8-8-8---0--0--|6-6-6-6-6-6-6-6-6-6-6-6--6-4-3|-4--4-4-4-6-----6|

 N.C
|---------------------|------------------------------|
|6---6--6-4h6p4-4--4-2|4--4--4--4--4--4-2h4p2----2--2|
|-----------------6---|---------------------------4--|
|--8---8--------------|--6--6--6--6--6---------------|
|---------------------|------------------------------|
|---------------------|------------------------------|
||B#5           D5      A#5                    A# G# G
|---------------------|------------------------------|
|---------------------|------------------------------|
|---------------------|------------------------------|
|-8-8-8-8-8-8---0--0--|6-6-6-6-6-6-6-6-6-6-6-6--6-4-3|
|-8-8-8-8-8-8---0--0--|6-6-6-6-6-6-6-6-6-6-6-6--6-4-3|
|-8-8-8-8-8-8---0--0--|6-6-6-6-6-6-6-6-6-6-6-6--6-4-3|


:VERSE:
 A#5 B#5                     B#5 A#5                      A#5 B#5
 H_eaven ablaze...eyes  Were standi... in ti______me   The blood on our hands
|--------------------------------------------------------|------------------|
|--------------------------------------------------------|------------------|
|--------------------------------------------------------|------------------|
|-6--8-8----------------------8---6-6-----6-8-6-8-10-8-6-|-6--8-8-----------|
|-6--8-8----------------------8---6-6-----6-8-6-8-10-8-6-|-6--8-8-----------|
|-6--8-8----------------------8---6-6-----6-8-6-8-10-8-6-|-6--8-8-----------|
  P.M__|                      P.M____|    P.M___________|  P.M__|

          A#5           B#5 A#5                         D#5
  is the wine____        we offer a sacrifice
|---------------------------------------------------------------------------|
|---------------------------------------------------------------------------|
|---------------------------------------------------------------------------|
|----------6---6---------8--6-6----------6-8-6-8-10-8-6--1------------------|
|----------6---6---------8--6-6----------6-8-6-8-10-8-6--1------------------|
|----------6---6---------8--6-6----------6-8-6-8-10-8-6--1------------------|
                         P.M__|          P.M__________|


:CHORUS:
 A#5     B#5             D5  A#5                        G# G5 G#5      A#5
Come on and  show   them your love rip  out   the   wings of  a  butterfly
|----------|---------------------------------------------------------------|
|----------|---------------------------------------------------------------|
|----------|---------------------------------------------------------------|
|-6----6h8-|-8-8-8-8-8-8-0-0--6-6-6-6-6-6-6-6-6-6-6-6--6-4-3--4--4-4-4--6-6|
|-6----6h8-|-8-8-8-8-8-8-0-0--6-6-6-6-6-6-6-6-6-6-6-6--6-4-3--4--4-4-4--6-6|
|-6----6h8-|-8-8-8-8-8-8-0-0--6-6-6-6-6-6-6-6-6-6-6-6--6-4-3--4--4-4-4--6-6|
 B#5          D5   A#5                       G# G5 G#5      A#5
  for your soul my love  rip  out the wings of a  butterfly for your
|--------------------------------------------------------------------------|
|--------------------------------------------------------------------------|
|--------------------------------------------------------------------------|
|-8-8-8-8-8-8-0-0--6-6-6-6-6-6-6-6-6-6-6-6--6-4-3--4--4-4-4--6-6-----------|
|-8-8-8-8-8-8-0-0--6-6-6-6-6-6-6-6-6-6-6-6--6-4-3--4--4-4-4--6-6-----------|
|-8-8-8-8-8-8-0-0--6-6-6-6-6-6-6-6-6-6-6-6--6-4-3--4--4-4-4--6-6-----------|
 N.C
 Soul
|---------------------|------------------------------|
|6---6--6-4h6p4-4--4-2|4--4--4--4--4--4-2h4p2---2---2|
|-----------------6---|---------------------------4--|
|--8---8--------------|--6--6--6--6--6---------------|
|---------------------|------------------------------|
|---------------------|------------------------------|
||B#5           D5      A#5                    A# G# G 
|---------------------|------------------------------|
|---------------------|------------------------------|
|---------------------|------------------------------|
|-8-8-8-8-8-8---0--0--|6-6-6-6-6-6-6-6-6-6-6-6--6-4-3|
|-8-8-8-8-8-8---0--0--|6-6-6-6-6-6-6-6-6-6-6-6--6-4-3|
|-8-8-8-8-8-8---0--0--|6-6-6-6-6-6-6-6-6-6-6-6--6-4-3|


:VERSE:
 A#5 B#5                     B#5 A#5                      A#5 B#5
 This endless mercy mile   were crawling side by side     with hell freezing
|--------------------------------------------------------|------------------|
|--------------------------------------------------------|------------------|
|--------------------------------------------------------|------------------|
|-6--8-8--------------6--6----8---6-6-----6-8-6-8-10-8-6-|-6--8-8-----------|
|-6--8-8--------------6--6----8---6-6-----6-8-6-8-10-8-6-|-6--8-8-----------|
|-6--8-8--------------6--6----8---6-6-----6-8-6-8-10-8-6-|-6--8-8-----------|
  P.M__|                      P.M____|    P.M___________|  P.M__|

          A#5           B#5 A#5                         D#5
over in our eyes      gods kneel before our cirme
|---------------------------------------------------------------------------|
|---------------------------------------------------------------------------|
|---------------------------------------------------------------------------|
|---------6---6-6-------8--6-6----------6-8-6-8-10-8-6--1-------------------|
|---------6---6-6-------8--6-6----------6-8-6-8-10-8-6--1-------------------|
|---------6---6-6-------8--6-6----------6-8-6-8-10-8-6--1-------------------|
                         P.M__|          P.M__________|


:CHORUS:
 A#5     B#5             D5  A#5                        G# G5 G#5      A#5
Come on and  show   them your love rip  out   the   wings of  a  butterfly
|----------|---------------------------------------------------------------|
|----------|---------------------------------------------------------------|
|----------|---------------------------------------------------------------|
|-6----6h8-|-8-8-8-8-8-8-0-0--6-6-6-6-6-6-6-6-6-6-6-6--6-4-3--4--4-4-4--6-6|
|-6----6h8-|-8-8-8-8-8-8-0-0--6-6-6-6-6-6-6-6-6-6-6-6--6-4-3--4--4-4-4--6-6|
|-6----6h8-|-8-8-8-8-8-8-0-0--6-6-6-6-6-6-6-6-6-6-6-6--6-4-3--4--4-4-4--6-6|
 B#5          D5   A#5                       G# G5 G#5      A#5
  for your soul my love  rip  out the wings of a  butterfly for your
|--------------------------------------------------------------------------|
|--------------------------------------------------------------------------|
|--------------------------------------------------------------------------|
|-8-8-8-8-8-8-0-0--6-6-6-6-6-6-6-6-6-6-6-6--6-4-3--4--4-4-4--6-6-----------|
|-8-8-8-8-8-8-0-0--6-6-6-6-6-6-6-6-6-6-6-6--6-4-3--4--4-4-4--6-6-----------|
|-8-8-8-8-8-8-0-0--6-6-6-6-6-6-6-6-6-6-6-6--6-4-3--4--4-4-4--6-6-----------|
 N.C
 Soul________________________________________________________________
|---------------------|------------------------------|---------------------|
|6---6--6-4h6p4-4--4-2|4--4--4--4--4--4-2h4p2--2--2-0|-2--2----2-----------|
|-----------------6---|--------------------------4---|----------------4----|
|--8---8--------------|--6--6--6--6--6---------------|---4--4--------------|
|---------------------|------------------------------|---------------------|
|---------------------|------------------------------|---------------------|
||B#5           D5      A#5                    A# G# G G#5     A#5
|---------------------|------------------------------|---------------------|
|---------------------|------------------------------|---------------------|
|---------------------|------------------------------|---------------------|
|-8-8-8-8-8-8---0--0--|6-6-6-6-6-6-6-6-6-6-6-6--6-4-3|-4--4-4-4-6-----6----|
|-8-8-8-8-8-8---0--0--|6-6-6-6-6-6-6-6-6-6-6-6--6-4-3|-4--4-4-4-6-----6----|
|-8-8-8-8-8-8---0--0--|6-6-6-6-6-6-6-6-6-6-6-6--6-4-3|-4--4-4-4-6-----6----|
 N.C
 Dont let go__________________________________________       For your soul
|---------------------|------------------------------|---------------------|
|6---6--6-4h6p4-4--4-2|4--4--4--4--4--4-2h4p2--2--2-0|---------2-----------|
|-----------------6---|--------------------------4---|--------------4------|
|--8---8--------------|--6--6--6--6--6---------------|---------------------|
|---------------------|------------------------------|---------------------|
|---------------------|------------------------------|---------------------|
||B#5           D5      A#5                    A# G# G G#5     A#5   B#5
|---------------------|------------------------------|---------------------|
|---------------------|------------------------------|---------------------|
|---------------------|------------------------------|---------------------|
|-8-8-8-8-8-8---0--0--|6-6-6-6-6-6-6-6-6-6-6-6--6-4-3|-4--4-4-4-6-----8\---|
|-8-8-8-8-8-8---0--0--|6-6-6-6-6-6-6-6-6-6-6-6--6-4-3|-4--4-4-4-6-----8\---|
|-8-8-8-8-8-8---0--0--|6-6-6-6-6-6-6-6-6-6-6-6--6-4-3|-4--4-4-4-6-----8\---|


:INTERLUDE:
 N.C
|------------------------------|
|------------------------------|
|------------------------------|
|------------------------------| X3  THEN PLAY:
|------------------------------|
|-3---6-5-3-1--1-5-1--/3--6--1-|
 N.C
|------------------------------------------------------------------------|
|------------------------------------------------------------------------|
|------------------------------------------------------------------------|
|------------------------------------------------------------------------|
|----------------------------5~~~~~~~~~--4~~~~~~~~~~--7~~~~~~~--8~~~~~~~~|
|-3---6-5-3-1--1-5-1--/3--6----------------------------------------------|



:CHORUS/OUTRO:
             N.C
Come on and  show   them your love rip  out   the   wings of  a  butterfly..
|--------|---------------------|------------------------------|------------|
|--------|6---6--6-4h6p4-4--4-2|4--4--4--4--4--4-2h4p2--2--2-0|-2--2----2--|
|--------|-----------------6---|--------------------------4---|-----------4|
|--------|--8---8--------------|--6--6--6--6--6---------------|---4--4-----|
|--------|---------------------|------------------------------|------------|
|--------|---------------------|------------------------------|------------|
||A#5    B#5               D5      A#5                    A# G# G G#5    A#5
|--------|---------------------|------------------------------|------------|
|--------|---------------------|------------------------------|------------|
|--------|---------------------|------------------------------|------------|
|6----6h8|-8-8-8-8-8-8---0--0--|6-6-6-6-6-6-6-6-6-6-6-6--6-4-3|4--4-4-4-6-6|
|6----6h8|-8-8-8-8-8-8---0--0--|6-6-6-6-6-6-6-6-6-6-6-6--6-4-3|4--4-4-4-6-6|
|6----6h8|-8-8-8-8-8-8---0--0--|6-6-6-6-6-6-6-6-6-6-6-6--6-4-3|4--4-4-4-6-6|

 soul my love  rip  out the wings of a   butterfly  for  your
|---------------------|------------------------------|---------------------|
|6---6--6-4h6p4-4--4-2|4--4--4--4--4--4-2h4p2--2--2-0|-2--2----2-----------|
|-----------------6---|--------------------------4---|----------------4----|
|--8---8--------------|--6--6--6--6--6---------------|---4--4--------------|
|---------------------|------------------------------|---------------------|
|---------------------|------------------------------|---------------------|
||B#5           D5      A#5                    A# G# G G#5     A#5
|---------------------|------------------------------|---------------------|
|---------------------|------------------------------|---------------------|
|---------------------|------------------------------|---------------------|
|-8-8-8-8-8-8---0--0--|6-6-6-6-6-6-6-6-6-6-6-6--6-4-3|-4--4-4-4-6-----6----|
|-8-8-8-8-8-8---0--0--|6-6-6-6-6-6-6-6-6-6-6-6--6-4-3|-4--4-4-4-6-----6----|
|-8-8-8-8-8-8---0--0--|6-6-6-6-6-6-6-6-6-6-6-6--6-4-3|-4--4-4-4-6-----6----|

 Soul___________________________________________________________   Dont let
|---------------------|------------------------------|---------------------|
|6---6--6-4h6p4-4--4-2|4--4--4--4--4--4-2h4p2--2--2-0|-2--2----2-----------|
|-----------------6---|--------------------------4---|----------------4----|
|--8---8--------------|--6--6--6--6--6---------------|---4--4--------------|
|---------------------|------------------------------|---------------------|
|---------------------|------------------------------|---------------------|
||B#5           D5      A#5                    A# G# G G#5     A#5
|---------------------|------------------------------|---------------------|
|---------------------|------------------------------|---------------------|
|---------------------|------------------------------|---------------------|
|-8-8-8-8-8-8---0--0--|6-6-6-6-6-6-6-6-6-6-6-6--6-4-3|-4--4-4-4-6-----6----|
|-8-8-8-8-8-8---0--0--|6-6-6-6-6-6-6-6-6-6-6-6--6-4-3|-4--4-4-4-6-----6----|
|-8-8-8-8-8-8---0--0--|6-6-6-6-6-6-6-6-6-6-6-6--6-4-3|-4--4-4-4-6-----6----|
 N.C
 Go__________________________________________           For your soul
|---------------------|------------------------------|---------------------|
|6---6--6-4h6p4-4--4-2|4--4--4--4--4--4-2h4p2--2--2-0|---------2-----------|
|-----------------6---|--------------------------4---|--------------4------|
|--8---8--------------|--6--6--6--6--6---------------|---------------------|
|---------------------|------------------------------|---------------------|
|---------------------|------------------------------|---------------------|
||B#5           D5      A#5                    A# G# G G#5     A#5   B#5
|---------------------|------------------------------|---------------------|
|---------------------|------------------------------|---------------------|
|---------------------|------------------------------|---------------------|
|-8-8-8-8-8-8---0--0--|6-6-6-6-6-6-6-6-6-6-6-6--6-4-3|-4--4-4-4-6-----6----|
|-8-8-8-8-8-8---0--0--|6-6-6-6-6-6-6-6-6-6-6-6--6-4-3|-4--4-4-4-6-----6----|
|-8-8-8-8-8-8---0--0--|6-6-6-6-6-6-6-6-6-6-6-6--6-4-3|-4--4-4-4-6-----6----|

                                                                Dont let go
|---------------------|------------------------------|---------------------|
|6---6--6-4h6p4-4--4-2|4--4--4--4--4--4-2h4p2--2--2-0|-2--2----2-----------|
|-----------------6---|--------------------------4---|----------------4----|
|--8---8--------------|--6--6--6--6--6---------------|---4--4--------------|
|---------------------|------------------------------|---------------------|
|---------------------|------------------------------|---------------------|
||B#5           D5      A#5                    A# G# G G#5     A#5
|---------------------|------------------------------|---------------------|
|---------------------|------------------------------|---------------------|
|---------------------|------------------------------|---------------------|
|-8-8-8-8-8-8---0--0--|6-6-6-6-6-6-6-6-6-6-6-6--6-4-3|-4--4-4-4-6-----6----|
|-8-8-8-8-8-8---0--0--|6-6-6-6-6-6-6-6-6-6-6-6--6-4-3|-4--4-4-4-6-----6----|
|-8-8-8-8-8-8---0--0--|6-6-6-6-6-6-6-6-6-6-6-6--6-4-3|-4--4-4-4-6-----6----|

                                                         For your soul_____
|---------------------|------------------------------|---------------------|
|6---6--6-4h6p4-4--4-2|4--4--4--4--4--4-2h4p2--2--2-0|---2-----------------|
|-----------------6---|--------------------------4---|-------4-------------|
|--8---8--------------|--6--6--6--6--6---------------|---------------------|
|---------------------|------------------------------|---------------------|
|---------------------|------------------------------|---------------------|
||B#5           D5      A#5                    A# G# G G#5     A#5
|---------------------|------------------------------|---------------------|
|---------------------|------------------------------|---------------------|
|---------------------|------------------------------|---------------------|
|-8-8-8-8-8-8---0--0--|6-6-6-6-6-6-6-6-6-6-6-6--6-4-3|-4--4-4-4-8--8\------|
|-8-8-8-8-8-8---0--0--|6-6-6-6-6-6-6-6-6-6-6-6--6-4-3|-4--4-4-4-8--8\------|
|-8-8-8-8-8-8---0--0--|6-6-6-6-6-6-6-6-6-6-6-6--6-4-3|-4--4-4-4-8--8\------|

            
            
Suggest correction
Creating personal tab
Creating personal tab
You can edit any tab online and save it as your Personal.

You can edit, replace or remove any tab part or add personal notes – all changes will be seen only by you.

Personal tabs can be accessed anytime from any device, even offline.
Learn more »
comments
print report bad tab
5 comments total. Showing first comments.
0 reply
skatersic666 557 Jun 14, 2006 11:28 AM

you've just nicked my tab and renamed it!!

0 reply
arsonite 171 Dec 12, 2006 04:39 PM

Quite similar, isn't it??

0 reply
killmate_07 10 Feb 18, 2007 09:08 AM

lol gangsta u stoled it!!!!!

guest
You may want to rate the tab now too:
select rating
Wanna post a correction for this tab? Suggest correction