Oops, an error
Loading. Please wait.

Your Sweet 666 tab

version 5
version 5
by HIM
1,398 views 1 this week
2 commentsread comments
1 2 3 4 5
2 more votes to show rating
add to favorites
×
Save as Personal and add changes to this tab that will be seen only by you. Learn more ›
×
You can save this tab as Personal to edit and correct it or add notes. All changes will be seen only by you. Learn more »
launch autoscroll
font size
0
reset
how to read this tab
guitar tuner
edit
Autoscroll
slow
fast
+/-
esc
set tempo
stop
Author
Difficulty
Tabbed by sixwheeledbeast
HIM - Your Sweet 666
Tuning: Standard E

This is pretty simple, feel free to make things
more economical (e.g. B5), but I play it this way.

PM any questions/corrections thanks, rate please.

------
UPDATED:- 21 Nov 2009 - Changed Intro/Bridge ending.

------

KEY
PS..  - pick scrape
PM..  - palm mute
[5]   - pinch harm


#Intro/Bridge
e|--------------------------|
b|--------------------------|
g|--------------------------|
D|--------------------------|
A|-5-4---9-----5--4---------|
E|-----5/7-----3--2---------|

e|--------------------------|
b|--------------------------|:
g|--------------------------|
D|--------------------------|
A|-9------5--4--------------|:
E|-7------3--2--------------|x2

e|--------------------------|
b|--------------------------|
g|--------------------------|
D|----------PM.........-----|
A|-9--PS\\--9-9-9-9-9-7-----|
E|-7--PS\\--7-7-7-7-7-5-----|


#Verse (0.16) - I have only tabbed the note changes,
                Listen to the song for timing.
e|-------------------------------------------------------|
b|-------------------------------------------------------|
g|PM.....................................................|
D|------------7------------------------------------------|
A|-5----------5----------4-----------------------------5-|
E|-3---------------------2-----------------------------3-|
          This is a keyboard riff but I add it in v 
e|-------------------------------------------------------|
b|-------------------------------------------------------|
g|PM.............................................--------|
D|------------7------------------------------------------|
A|-5----------5----------4------------------------5-4----|
E|-3---------------------2---------------------------5[3]|

e|-------------------------------------------------------|
b|-------------------------------------------------------|
g|PM.....................................................|
D|------------7------------------------------------------|
A|-5----------5----------4-----------------------------5-|
E|-3---------------------2-----------------------------3-|

e|-------------------------------------------------------|
b|-------------------------------------------------------|
g|PM.....................--------------------------------|
D|------------7------------------------------------------|
A|-5----------5----------4--------------4----------------|
E|-3---------------------2--------------2----------------|

#Chorus (0.46)
e|-------------------------------------------------------|
b|-------------------------------------------------------|
g|-------------------------------------------------------|
D|---------[5]4----------[5]4------4--[5]4------4--[5]4--|
A|-----9-------------9---------5-5--5--------------------|
E|-7-7--7--------7-7--7---------------------5-5--5-------|

                         Chorus x2 w/out end on the second v
e|--------------------------------------------------|-------|
b|--------------------------------------------------|-------|
g|--------------------------------------------------|-------|
D|------[5-5-4]--------[5-5-4]-------[5-5-4]-----4--|-------|
A|----4--------------4-------------4----------------|5-4---9|
E|3-3--3---------3-3--3--------3-3--3--------5-5--5-|----5/7|

#Intro/Bridge (1.15)
#Verse (1.30)
#Chorus (2.00)

#Bridge Variation (2.29)
e|--------------------------|
b|--------------------------|
g|--------------------------|
D|--------------------------|
A|-5-4---9-----5--4---------|
E|-----5/7-----3--2---------|

e|--------------------------|
b|--------------------------|:
g|--------------------------|
D|--------------------------|
A|-9------5--4--------------|:
E|-7------3--2--------------|x2

e|--------------------------|
b|--------------------------|
g|--------------------------|
D|---------------------PM...|
A|-9------5--4------------9x|
E|-7------3--2------------7x|

#Rest for Guitar (2.45)

#Build-up (2.55)
e|--------------------------|
b|--------------------------|
g|--------------------------|
D|--------------------------|
A|-4---------4--------------|
E|-2---------2--------------|

#Chorus with key change (2.59)
e|-------------------------------------------------------|
b|-------------------------------------------------------|
g|-------------------------------------------------------|
D|---------[7]6----------[7]6------6--[7]6------6--[7]6--|
A|----11------------11---------7-7--7--------------------|
E|-9-9--9--------9-9--9---------------------7-7--7-------|

e|-------------------------------|
b|-------------------------------|:
g|-------------------------------|
D|-----6--7-7-6------6-----------|
A|----------------------7-6---11-|:
E|-5-5--5--------7-7--------7/9--|x3

e|-------------------------------------------------------|
b|-------------------------------------------------------|
g|-------------------------------------------------------|
D|---------[7]6----------[7]6------6--[7]6------6--[7]6--|
A|----11------------11---------7-7--7--------------------|
E|-9-9--9--------9-9--9---------------------7-7--7-------|

#Ending - Repeated riff (3.40)
e|-------------------------------|    |----------------|
b|-------------------------------|:   |----------------|
g|-------------------------------|    |----------------|
D|-----6-[7-7-6]-----6-[7-7-6]---|    |----------------|
A|-------------------------------|:   |-7-6---11\\\\\\-|
E|[5]5-----------7-7-------------|x4  |-----7/9\\\\\\\-|

            
            
Suggest correction
Creating personal tab
Creating personal tab
You can edit any tab online and save it as your Personal.

You can edit, replace or remove any tab part or add personal notes – all changes will be seen only by you.

Personal tabs can be accessed anytime from any device, even offline.
Learn more »
Give kudos to tab author, rate the tab!
1 2 3 4 5
comments
print report bad tab
2 comments total.
0 reply
Duality Ninja 41 Nov 14, 2009 09:53 PM

Great tab, but there are a few errors. For example, the verse riff: e|-------------------------------------------------------|
b|-------------------------------------------------------|
g|PM.....................................................|
D|------------7------------------------------------------|
A|-5----------5----------4-----------------------------5-|
E|-3---------------------2-----------------------------3-|
This is a keyboard riff but I add it in v
e|-------------------------------------------------------|
b|-------------------------------------------------------|
g|PM.............................................--------|
D|------------7------------------------------------------|
A|-5----------5----------4------------------------5-4----|
E|-3---------------------2---------------------------5[3]|

e|-------------------------------------------------------|
b|-------------------------------------------------------|
g|PM.....................................................|
D|------------7------------------------------------------|
A|-5----------5----------4-----------------------------5-|
E|-3---------------------2-----------------------------3-|

e|-------------------------------------------------------|
b|-------------------------------------------------------|
g|PM.....................--------------------------------|
D|------------7------------------------------------------|
A|-5----------5----------4--------------4----------------|
E|-3---------------------2--------------2----------------|

Should go more like:
e|-------------------------------------------------------|
b|-------------------------------------------------------|
g|PM.....................................................|
D|------------7------------------------------------------|
A|-5----------5----------4-----------------------------5-|
E|-3---------------------2-----------------------------3-|
This is a keyboard riff but I add it in v
e|-------------------------------------------------------|
b|-------------------------------------------------------|
g|PM.............................................--------|
D|------------4------------------------------------------|
A|-5----------2----------4------------------------5-4-2-0|
E|-3---------------------2-------------------------------|

e|-------------------------------------------------------|
b|-------------------------------------------------------|
g|PM.....................................................|
D|------------7------------------------------------------|
A|-5----------5----------4-----------------------------5-|
E|-3---------------------2-----------------------------3-|

e|-------------------------------------------------------|
b|-------------------------------------------------------|
g|PM.....................--------------------------------|
D|------------4------------------------------------------|
A|-5----------2----------4--------------4----------------|
E|-3---------------------2--------------2----------------|

And, the intro/bridge is more like: #Intro/Bridge
e|--------------------------|
b|--------------------------|
g|--------------------------|
D|--------------------------|
A|-5-4---9-----5--4---------|
E|-----5/7-----3--2---------|

e|--------------------------|
b|--------------------------|:
g|--------------------------|
D|--------------------------|
A|-9------5--4--------------|:
E|-7------3--2--------------|x2

e|--------------------------|
b|--------------------------|
g|---------------PM******---|
D|--------------4-4-4-4-4-2-|
A|-9--Pick------2-2-2-2-2-0-|
E|-7--Slide-----------------|

Other than that, it looks pretty good.

0 reply
sixwheeledbeast 279 Nov 21, 2009 10:38 AM

Thank you for your post I have been listening to the song again and have corrected the Intro/Bridge, i completely agree.
The verse however I am not sure your version of that keyboard lick is correct, anyway for me this lick is only an excuse to add a squealie. Cheers.

guest
You may want to rate the tab now too:
select rating
Wanna post a correction for this tab? Suggest correction