Oops, an error
Loading. Please wait.

Better Than Me tab

version 5
version 5

Interactive

by Hinder
18,736 views 1 this week
4 commentsread comments
1 2 3 4 5
1 last vote to show rating
add to favorites
×
Save as Personal and add changes to this tab that will be seen only by you. Learn more ›
×
You can save this tab as Personal to edit and correct it or add notes. All changes will be seen only by you. Learn more »
launch autoscroll
font size
0
reset
how to read this tab
guitar tuner
edit
Autoscroll
slow
fast
+/-
esc
set tempo
stop
Author
Difficulty
Better Than Me - Hinder
-------------------------------------------------------------------------------
Tabbed by: brian3234
Email: braveau@comcast.net

This is my first tab.  Let me know what you think, I think it is accurate.  The 
of the song is a little difficult to figure out at first.  Great song, fun to play.

Tuning: Standard eBGDAE

Intro/Verse 1

e|---------------------------------------------------------------------------|
B|---5-5--5---5-5--5---3-3--3--333/5-------------------3-3--3-3-3-33-xx------|
G|--------------------------0--00-/----X5—last time --------0-0-0-00-xx------|
D|--3-3-3----3-3-3----3-3-3-3--333/--------with-------3-3-3-3-3-3-33-xx------|
A|-5-----5--3-----3--1------1--11--------------------1------1-1-1-11-xx------|
E|---------------------------------------------------------------------------|

Pre-Chorus

e|--x---x---x---------------------------------------------------------------|
B|--3---3---1---------------------------------------------------------------|
G|--2---3---0-----X2-Figure Out Strumming, not to hard----------------------|
D|--0---3---2---------------------------------------------------------------|
A|--0---1---3---------------------------------------------------------------|
E|--x---x---x---------------------------------------------------------------|

Chorus

e|---x---x---x---x---x---x---x-----------------------------------------------|
B|---3---3---3---1---3---3---1-----------------------------------------------|
G|---2---3---2---0---2---3---0------X1---------------------------------------|
D|---0---3---0---2---0---3---2-----------------------------------------------|
A|---0---1---0---3---0---1---3-----------------------------------------------|
E|---x---x---x---x---x---x---x-----------------------------------------------|

Repeat Intro/Verse 1 X2

Verse 2

e|---x---x---x---------------------------------------------------------------|
B|---5---5---3-----------------------------------3-3--3-3-3-33-xx------------|
G|---0---0---0----X4-------Last time end on-----------0-0-0-00-xx------------|
D|---5---3---3----------------------------------3-3-3-3-3-3-33-xx------------|
A|---3---3---1---------------------------------1------1-1-1-11-xx------------|
E|---x---x---x---------------------------------------------------------------|

Repeat Pre-Chorus X2
Repeat Chorus X1

Interlude
                                      (distortion)
e|---x---x---x---x-----------------------------------------------------------|
B|---3---3---x---1---------------------------3333----------------------------|
G|---0---3---2---0-----X2---then---------22222222----------------------------|
D|---0---3---3---2------------------0000-00000000----------------------------|
A|---2---1---3---3------------------0000-0000--------------------------------|
E|---3---x---1---x-----------------| PM |------------------------------------|

Repeat chorus distortion X2
Repeat pre-chorus distortion X4


| /  slide up
| \  slide down
| h  hammer-on
| p  pull-off
| ~  vibrato
| +  harmonic
| x  Mute note
==========================================================

            
            
Suggest correction
Creating personal tab
Creating personal tab
You can edit any tab online and save it as your Personal.

You can edit, replace or remove any tab part or add personal notes – all changes will be seen only by you.

Personal tabs can be accessed anytime from any device, even offline.
Learn more »
Give kudos to tab author, rate the tab!
1 2 3 4 5
comments
print report bad tab
4 comments total. Showing first comments.
0 reply
brian3234 31 Apr 16, 2007 08:16 AM

I made a mistake, the first chord in the second verse should be *5305*, not *3505*, eadgbe.

+1 reply
-madhater- 1,370 Jul 21, 2007 05:02 PM

hey this is good..

+1 reply
raw meat 10 Feb 02, 2009 11:56 PM

this is a good tab, but it just doesn't sound right. and i don't know what it is

guest
You may want to rate the tab now too:
select rating
Wanna post a correction for this tab? Suggest correction