Oops, an error
Loading. Please wait.

Last Kiss Goodbye tab

by Hinder
1,499 views 1 this week
no commentswrite comment
1 2 3 4 5
2 more votes to show rating
add to favorites
×
Save as Personal and add changes to this tab that will be seen only by you. Learn more ›
×
You can save this tab as Personal to edit and correct it or add notes. All changes will be seen only by you. Learn more »
launch autoscroll
font size
0
reset
how to read this tab
guitar tuner
edit
Autoscroll
slow
fast
+/-
esc
set tempo
stop
Author
Last Kiss Goodbye - Hinder

Done all by ear, could be a few mistakes but very minor ones. There are only two guitar parts in this song. 
This is the lead guitar part. The other guitar plays all chords, so if you want to learn that, refer to the 
chords tab of this song.

Drop D Tuning - DADGBe
 
Intro
e|---------------------------------------------------------|
B|-----5/10-----12-12b13r12---12-12b13r12--------10--------|
G|-------------------------12------------12--9-12--10--12-9|
D|---------------------------------------------------------|
A|---------------------------------------------------------|
D|---------------------------------------------------------|

Verse 1
e|------------------------------------------------------------15|
B|------13-----12----13----------13------15--13----13---12------|
G|--------14-----------14----------14------14--12----12---12----|
D|--------------------------------------------------------------|
A|--------------------------------------------------------------|
D|--------------------------------------------------------------|

e|--------------------------------------------------------------|
B|----12--10~~/-------------------------------------------------|
G|------12--9~/-------------------------------------------------|
D|--------------------------------------------------------------|
A|--------------------------------------------------------------|
D|--------------------------------------------------------------|

Pre-Chorus
e|--------------------------------------------------------------|
B|--------------------------------------------------------------|
G|---------------------------3-5------5-5-5-5-5-5-5-5-5-5-5-5---|
D|---3-3--------3-----3-3----3/5-(PM)-5-5-5-5-5-5-5-5-5-5-5-5---|
A|-1----------0-----1--------1/3-(PM)-3-3-3-3-3-3-3-3-3-3-3-3---|
D|----------0---------------------------------------------------|

Chorus
e|---------------------------------------------------------17---|
B|----18-17-18----20-18----18-17-18----20-18----18-17-18------18|
G|--17---------17--------17---------17--------17---------17-----|
D|--------------------------------------------------------------|
A|--------------------------------------------------------------|
D|--------------------------------------------------------------|

e|--------------------------------------------------------------|   
B|----18-17-18--20-18-17------18-17-18----20-18----18-17-18-----|
G|--17----------------------17---------17--------17---------17--|
D|--------------------------------------------------------------|
A|--------------------------------------------------------------|
D|--------------------------------------------------------------|

e|--------------------17----------------------------------------|
B|20-18----18-17-18------18-----18-17-18--20-18-17--------------|
G|-------17---------17--------17--------------------------------|
D|--------------------------------------------------------------|
A|--------------------------------------------------------------|
D|--------------------------------------------------------------|

Interlude
e|--------------------------------------------------------------|
B|----18-17-----------------------------------------------------|
G|--17------17----14h17--17b18-17b18-17---15-14-----------------|
D|--------------------------------------------------------------|
A|--------------------------------------------------------------|
D|--------------------------------------------------------------|

Verse 2
e|------------------------------15------------|
B|--13------15--13----13---12-------12--10~~/-|
G|----14------14--12----12---12-------12--9~/-|
D|--------------------------------------------|  x2
A|--------------------------------------------|
D|--------------------------------------------|

(PRE CHORUS)

Chorus
e|---------------------------------------------------------17---|
B|----18-17-18----20-18----18-17-18----20-18----18-17-18------18|
G|--17---------17--------17---------17--------17---------17-----|
D|--------------------------------------------------------------|
A|--------------------------------------------------------------|
D|--------------------------------------------------------------|

e|--------------------------------------------------------------|   
B|----18-17-18--20-18-17------18-17-18----20-18----18-17-18-----|
G|--17----------------------17---------17--------17---------17--|
D|--------------------------------------------------------------|
A|--------------------------------------------------------------|
D|--------------------------------------------------------------|

e|--------------------17----------------------------------------|
B|20-18----18-17-18------18-----18-17-18--20-18-17--------------|
G|-------17---------17--------17--------------------------------|
D|--------------------------------------------------------------|
A|--------------------------------------------------------------|
D|--------------------------------------------------------------|

Bridge
e|--------------------------------------------------------------|
B|--18----18-17----17--18--18------17---18----18p17------18-----|
G|----19---------17--17------19--17----------------19-----------|
D|--------------------------------------------------------------|
A|--------------------------------------------------------------|
E|--------------------------------------------------------------|

e|--------------------------------------------------------------|
B|--18p17----------5-----5h6--6-----6-5-------------------------|
G|-------17--14-----5----------7---------5-5-5-5-5-5-5-5-5-5-5-5|
D|---------------------------------------5-5-5-5-5-5-5-5-5-5-5-5|
A|---------------------------------------3-3-3-3-3-3-3-3-3-3-3-3|
E|--------------------------------------------------------------|

e|-------------|
B|-------------|
G|5-5-5-5-10---|
D|5-5-5-5-10---|
A|3-3-3-3-8----|
E|-------------|

(Chorus)*
*Try to fit the chorus in from here. It's the same apart from the first part of the chorus which is missed
out.

Chorus is played until the end.

            
            
Suggest correction
Creating personal tab
Creating personal tab
You can edit any tab online and save it as your Personal.

You can edit, replace or remove any tab part or add personal notes – all changes will be seen only by you.

Personal tabs can be accessed anytime from any device, even offline.
Learn more »
Give kudos to tab author, rate the tab!
1 2 3 4 5
comments
print report bad tab
guest
You may want to rate the tab now too:
select rating
Wanna post a correction for this tab? Suggest correction