Oops, an error
Loading. Please wait.

Sula intro tab

version 2
version 2

Intro

  • The '0's at the beginning of every part are meant ... Show more
  • This is a great song by Hippo Campus and since the... Show more

Whole song

214 views 1 this week
3 commentsread comments
1 2 3 4 5
x 3
add to favorites
×
Save as Personal and add changes to this tab that will be seen only by you. Learn more ›
×
You can save this tab as Personal to edit and correct it or add notes. All changes will be seen only by you. Learn more »
launch autoscroll
font size
0
reset
how to read this tab
guitar tuner
edit
Autoscroll
slow
fast
+/-
esc
set tempo
stop
About this tab version
This is a great song by Hippo Campus and since there aren't very many I decided to make one and plan on making more and maybe even tutorial videos. A tip for the verse for lead is to lift your finger up right after playing the note. Watch some videos of them playing live to really understand. Check out my cover of this on youtube for the full song https://www.youtube.com/watch?v=M1ydllFVt78. Was this info helpful? Yes No
https://www.youtube.com/watch?v=C0ruS7RQkjQ Studio Version

https://www.youtube.com/watch?v=QKjckf0PmBI Live Acoustic


[Intro]
          Lead
e|--------------------|---------------------|-------------------|---------------------| 
B|--------------------|---------------------|-------------------|---------------------|
G|--11-9--------------|-11-9----------------|-11-9--------------|-11-9----------------| x4
D|-------11-7-9-11-7--|------11-7-9-11-11-11|------11-7-9-11-7-9|------11-9-11-7-7-7--|
A|-0--0-0--0-0-0--0-0-|---0-0--0-0-0--0--0--|0--0-0--0-0-0--0-0-|0--0-0--0-0--0-0-0---|
E|--------------------|---------------------|-------------------|---------------------|
          Rhythm
e|-x------------------|---------------------|-x-----------------------------| On live acoustic versions the 
B|-5------------------|---------------------|-5-----------------------------| rhythm strums the chord but in
G|-6------------------|---------------------|-6-----------------------------| the studio version it plays 
D|-7------------------|---------------------|-7-----------------------------| just the 5th fret.
A|-x------------------|---------------------|-x-----------------------------| Rhythm also comes in after the
E|-5-5-5-5-5-5-5-5-5-5|-5-5-5-5-5-5-5-5-5-5-|-5-5-5-5-5-5-5-5-5-5-5-5-5-5-5-| first time through.

[Verse]
         Lead
e|------------------------------------------------------------------------|
B|------------------------------------------------------------------------|
G|-----------4--6-6-------------------------------------------------------|x5
D|----6--6--2--4----------------------------------------------------------|
A|---4--4--4--5-----------------------------------------------------------|
E|-5---5------------------------------------------------------------------|
         Rhythm
e|-x-------x--x-----------------------------------------------------------|I put the fingerings for each of
B|-5-m---p-5--5-r---------------------------------------------------------|the chords because they are 
G|-6-p---r-4--6-p---------------------------------------------------------|tricky, also in the studio
D|-6-r---i-2--4-i---------------------------------------------------------|version im pretty sure both
A|-x-----m-4--5-m---------------------------------------------------------|guitars play the same part and
E|-5-i-----x--x-----------------------------------------------------------|live the lead plays a octive higher


************************************

| x   Dead note
| p   Pinky finger
| r   Ring finger
| m   Middle finger
| i   Index finger| 

************************************

            
            
Suggest correction
Creating personal tab
Creating personal tab
You can edit any tab online and save it as your Personal.

You can edit, replace or remove any tab part or add personal notes – all changes will be seen only by you.

Personal tabs can be accessed anytime from any device, even offline.
Learn more »
Give kudos to tab author, rate the tab!
1 2 3 4 5
comments
print report bad tab
3 comments total.
0 reply
mck.langer 10 Aug 12, 2017 03:38 PM

You don't even know how long I've been looking for that second part, about two years ago I tried to figure it out by watching the "stripped down" version over and over but only got the first two notes. I owe you my first born child I swear

0 reply
justicoop 81 Aug 13, 2017 04:51 PM

haha youre welcome, i also learnt the whole song so i will be making a cover of that soon

0 reply
kd25170 10 Nov 13, 2017 03:56 PM

Very helpful i've been looking for this tab everywhere

guest
You may want to rate the tab now too:
select rating
Wanna post a correction for this tab? Suggest correction