Oops, an error
Loading. Please wait.

The Halocline ukulele

1,003 views 3 this week
no commentswrite comment
1 2 3 4 5
2 more votes to show rating
add to favorites
×
Save as Personal and add changes to this tab that will be seen only by you. Learn more ›
×
You can save this tab as Personal to edit and correct it or add notes. All changes will be seen only by you. Learn more »
launch autoscroll
font size
0
reset
transpose
0
reset
display chords
guitar tuner
edit
Autoscroll
slow
fast
+/-
esc
set tempo
stop
Strumming
There is no strumming pattern for this song yet. and get +5 IQ
[Intro]

A|--------------------------------------------- ------------------------------------------|
E|-------4--4---------------4--4--------------- ----------4-4-2----------4-4-----4-4-2-2--|
C|---4-4-------4-4------4-4-------4-4---------- --1-1-4-4--------1-1-4-4------------------|
G|-----------------6------------------6--6--4-- -----------------------------4-4----------|


[Verse]

E
 I scream your name
    C#m
 As blood bursts from my vein
        E
 In our darkest days
     C#m
 The blood bursts from my vein


 E
 Crawling out of the sewer
 C#m
 Crimson red
     E
 I'm calling out
        C#m
 To the walking dead


[Chorus]

 E
 This is my home

 This is my only way
 C#m
 This is my home

 This is my only way
 E
 This is my home

 This is my only way
 C#m
 This is my home
                     E
 This is my only way home
 C#m
 Home


[Interlude]

 E C#m


[Verse]

 E               C#m
 Oh, the sun has died
 E                   C#m 
 Face toward the halocline
 E           C#m
 We all have died
 E                  C#m
 We all are the halocline

 Singing out


[Chorus]

 E
 This is our home

 This is our only way
 C#m
 This is our home

 This is our only way
 E
 This is our home
 
 This is our only way
 C#m
 This is our home

 This is our only way


 E
 This is our home

 This is our only way
 C#m
 This is our home

 This is our only way
 E
 This is our home

 This is our only way
 C#m
 This is our home

 This is our only way



 E
 This is our home

 This is our only way
 A
 This is our home, home, home
 E
 This is our home
 
 This is our only way
 A
 This is our home, home, home


[Solo]


    E                    A                         
A|----------------------------------------------|
E|-------4-------4-----------------------4------|
C|--4-6-----4-6----------------------------(4)--|
G|-----------------4--4--6-6-4--6-6-6-4---------|


[Bridge]

 E
 Home, home, home, home
 A
 Home, home, home, home


[Outro]

A|--------------------------------------------- ------------------------------------------|
E|-------4--4---------------4--4--------------- ----------4-4-2----------4-4-----4-4-2-2--|
C|---4-4-------4-4------4-4-------4-4---------- --1-1-4-4--------1-1-4-4------------------|
G|-----------------6------------------6--6--4-- -----------------------------4-4----------|



            
            
Suggest correction
Creating personal tab
Creating personal tab
You can edit any tab online and save it as your Personal.

You can edit, replace or remove any tab part or add personal notes – all changes will be seen only by you.

Personal tabs can be accessed anytime from any device, even offline.
Learn more »
Give kudos to tab author, rate the tab!
1 2 3 4 5
comments
print report bad tab
guest
You may want to rate the tab now too:
select rating
Wanna post a correction for this tab? Suggest correction