Oops, an error
Loading. Please wait.

Meaning tab

125 views 1 this week
1 commentread comment
1 2 3 4 5
3 more votes to show rating
add to favorites
×
Save as Personal and add changes to this tab that will be seen only by you. Learn more ›
×
You can save this tab as Personal to edit and correct it or add notes. All changes will be seen only by you. Learn more »
launch autoscroll
font size
0
reset
how to read this tab
guitar tuner
edit
Autoscroll
slow
fast
+/-
esc
set tempo
stop
Author
Difficulty
-------------------------------------------------------------------------------
                        THE MEANING - History Of Our Presence
-------------------------------------------------------------------------------
Tabbed by: @!ex Cedillo
Email:alex_8040@yahoo.com

Tuning:Drop D (DADGBe)

***Listen for timing and struming patterns***

  Guitar 1  0:00 - 0:18
e|---------------------------------------------------------------------------|
B|10-11-11-11-11-10-10-10--(x12)---------------------------------------------|
G|---------------------------------------------------------------------------|
D|---------------------------------------------------------------------------|
A|---------------------------------------------------------------------------|
D|---------------------------------------------------------------------------|

  Guitar 2  0:07 - 0:18
e|---------------------------------------------------------------------|------------|
B|---------------------------------------------------------------------|------------|
G|8-8-8--11-11-11-11-8-8-8-8--11-11-11-11--4-4-4--10-10-10-10--4-4-4-4-|10-10-10-10-|
D|x-x-x--x--x--x--x--x-x-x-x--x--x--x--x---x-x-x--x--x--x--x---x-x-x-x-|x--x--x--x--|x2
A|6-6-6--9--9--9--9--6-6-6-6--9--9--9--9---2-2-2--8--8--8--8---2-2-2-2-|8--8--8--8--|
D|---------------------------------------------------------------------|------------|
                                    don't play this last section on 2nd time--^
  Guitar 1  0:19
e|---------------------------------------------------------------------------|
B|---------------------------------------------------------------------------|
G|---------------------------------------------------------------------------|
D|0-1-1-1---------0-1-1-1---------8-9-9-9-------------8-9-9-9----------------|
A|0-1-1-1---------0-1-1-1---------8-9-9-9-------------8-9-9-9----------------|
D|0-1-1-1---------0-1-1-1---------8-9-9-9-------------8-9-9-9----------------|

  Guitar 2  0:19
e|-----------------------------------------------------------|-----------|------------|
B|-----------------------------------------------------------|-----------|------------|
G|--------6-6-6-6---------6-6-6-6---------10-10-11-10--------|10-10-11-13|10-10-13-11-|
D|0-1-1-1-x-x-x-x-0-1-1-1-x-x-x-x-8-9-9-9-x--x--x--x--8-9-9-9|x--x--x--x-|x--x--x--x--|x2
A|0-1-1-1-4-4-4-4-0-1-1-1-4-4-4-4-8-9-9-9-8--8--9--8--8-9-9-9|8--8--9--11|8--8--11-9--|
D|0-1-1-1---------0-1-1-1---------8-9-9-9-------------8-9-9-9|-----------|------------|
                                 On 2nd time change this section--^ with this--^
  Both Guitars  0:31
e|---------------------------------------------------------------------------|
B|---------------------------------------------------------------------------|
G|---------------------------------------------------------------------------|
D|11------10--11------4-4-4--------------------------------------------------|
A|9--(x13)10--x--(x13)4-4-4--------------------------------------------------|
D|9-------10--9-------4-4-4--------------------------------------------------|

  Guitar 1  0:34
e|---------------------------------------------------------------------------|
B|---------------------------------------------------------------------------|
G|---------------------------------------------------------------------------|
D|0-1-1-1---------0-1-1-1---------8-9-9-9-------------8-9-9-9----------------|
A|0-1-1-1---------0-1-1-1---------8-9-9-9-------------8-9-9-9----------------|
D|0-1-1-1---------0-1-1-1---------8-9-9-9-------------8-9-9-9----------------|

  Guitar 2  0:34
e|-----------------------------------------------------------|-----------|------------|
B|-----------------------------------------------------------|-----------|------------|
G|--------6-6-6-6---------6-6-6-6---------10-10-11-10--------|10-10-11-13|10-10-13-11-|
D|0-1-1-1-x-x-x-x-0-1-1-1-x-x-x-x-8-9-9-9-x--x--x--x--8-9-9-9|x--x--x--x-|x--x--x--x--|x2
A|0-1-1-1-4-4-4-4-0-1-1-1-4-4-4-4-8-9-9-9-8--8--9--8--8-9-9-9|8--8--9--11|8--8--11-9--|
D|0-1-1-1---------0-1-1-1---------8-9-9-9-------------8-9-9-9|-----------|------------|
                                 On 2nd time change this section--^ with this--^
  Both Guitars  0:53
e|---------------------------------------------------------------------------|
B|---------------------------------------------------------------------------|
G|---------------------------------------------------------------------------|
D|11------10--11------4-4-4--------------------------------------------------|
A|9--(x13)10--x--(x13)4-4-4--------------------------------------------------|
D|9-------10--9-------4-4-4--------------------------------------------------|

  Guitar 1  0:59
e|-----------------------------------------|-------------|-------------------|
B|-----------------------------------------|-------------|-------------------|
G|-----------------------------------------|-------------|-------------------|
D|1-1-1--1-1-1--1-1-1--1-1-1--4-4-4--4-4-4-|-4-6-4-3-4-1-|-4-6-4-3-4-3-------|x2
A|1-1-1--1-1-1--1-1-1--1-1-1--4-4-4--4-4-4-|-4-6-4-3-4-1-|-4-6-4-3-4-3-------|
D|1-1-1--1-1-1--1-1-1--1-1-1--4-4-4--4-4-4-|-4-6-4-3-4-1-|-4-6-4-3-4-3-------|
                  On 2nd time change this section--^ with this--^
  Guitar 2  0:59
e|---------------------------------------------------------------------------|
B|---------------------------------------------------------------------------|
G|10-11-10-11-10-11-10-13-10(x2)--8-10-8-10-8-10-8-11-8(x2)------------------|
D|---------------------------------------------------------------------------|x2
A|---------------------------------------------------------------------------|
D|---------------------------------------------------------------------------|
PM  .  .  .  .  .  .  .  .  .      .  . .  . .  . .  . .
  Guitar 1  1:12
e|--------------------------------------------------------------------------------|
B|--------------------------------------------------------------------------------|
G|--------------------------------------------------------------------------------|
D|9-9-9-9-9-9-9-4-4-4-4-4-4-4-3-3-3-3-3-3-3-1-1-1-1-1-1-1--------------------|<---|
A|9-9-9-9-9-9-9-4-4-4-4-4-4-4-3-3-3-3-3-3-3-1-1-1-1-1-1-1--------------------| ---|
D|9-9-9-9-9-9-9-4-4-4-4-4-4-4-3-3-3-3-3-3-3-1-1-1-1-1-1-1--------------------| ---|
                                                                                |
Guitar 2  1:12                                                                  |
e|---------------------------------------------------------------------------|  |
B|---------------------------------------------------------------------------|  |
G|---------------------------------------------------------------------------|  |
D|----8-----8-------6-----6-------4-----4-------4-----4----------------------|  |
A|------9-9-----------4-4-----------3-3-----------1-1------------------------|  |
D|9-9-----------4-4-----------3-3-----------1-1------------------------------|  |
                                                                                |
  Guitar 1                                                                      |(x2)
e|---------------------------------------------------------------------------|  |
B|---------------------------------------------------------------------------|  |
G|---------------------------------------------------------------------------|  |
D|9-9-9-9-9-9-9-4-4-4-4-4-4-4-3-3-3-3-3-3-3-4-3-3-8-6-6----------------------|  |
A|9-9-9-9-9-9-9-4-4-4-4-4-4-4-3-3-3-3-3-3-3-4-3-3-8-6-6----------------------|  |
D|9-9-9-9-9-9-9-4-4-4-4-4-4-4-3-3-3-3-3-3-3-4-3-3-8-6-6----------------------|  |
                                                                                |
 Guitar 2                                                                       |
e|---------------------------------------------------------------------------| ---|
B|---------------------------------------------------------------------------| ---|
G|---------------------------------------------------------------------------| ---|
D|----8-----8-------6-----6-------4-----4---4-3-3-8-6-6----------------------|<---|
A|------9-9-----------4-4-----------3-3-----4-3-3-8-6-6---------------------------|
D|9-9-----------4-4-----------3-3-----------4-3-3-8-6-6---------------------------|

  Guitar 1  1:37
e|---------------------------------------------------------------------------|
B|---------------------------------------------------------------------------|
G|---------------------------------------------------------------------------|
D|------------------------------------5/1------------------------------------|
A|-------------------------0-1-1-1----5/1------------------------------------|
D|0-1-1-1------0--1-1-1---------------5/1------------------------------------|
PM. . . .      .  . . .    . . . .
  Guitar 2 1:37
e|11-11-11-11--9--9--9--9--9--9--9--9----------------------------------------|
B|11-11-11-11-11-11-11-11-11-11-11-11----------------------------------------|
G|11-11-11-11-10-10-10-10-11-11-11-11-7/3------------------------------------|
D|------------------------------------x/x------------------------------------|
A|------------------------------------5/1------------------------------------|
D|---------------------------------------------------------------------------|

  Guitar 1  1:43
e|---------------------------------------------------------------------------|
B|---------------------------------------------------------------------------|
G|-------*5-------------*5---------------------------------------------------|
D|--------*9-*5-*5-------*9-*5-*5-8-9-9-9-------------8-9-9-9----------------|
A|--------------------------------8-9-9-9-------------8-9-9-9----------------|
D|--------------------------------8-9-9-9-------------8-9-9-9----------------|

  Guitar 2  1:43
e|---------------------------------------------------------------------------|
B|---------------------------------------------------------------------------|
G|--------6-6-6-6---------6-6-6-6---------10-10-11-10---------10-10-11-13----|
D|0-1-1-1-x-x-x-x-0-1-1-1-x-x-x-x-8-9-9-9-x--x--x--x--8-9-9-9-x--x--x--x-----|
A|0-1-1-1-4-4-4-4-0-1-1-1-4-4-4-4-8-9-9-9-8--8--9--8--8-9-9-9-8--8--9--11----|
D|0-1-1-1---------0-1-1-1---------8-9-9-9-------------8-9-9-9----------------|

 Both Guitars  1:49
e|---------------------------------------------------------------------------|
B|---------------------------------------------------------------------------|
G|---------------------------------------------------------------------------|
D|11------10--11------4-4-4--------------------------------------------------|
A|9--(x13)10--x--(x13)4-4-4--------------------------------------------------|
D|9-------10--9-------4-4-4--------------------------------------------------|

  Guitar 1  1:56
e|---------------------------------------------------------------------------|
B|---------------------12-12-12-12-12-12-------------------------------------|
G|---------------------15-15-15-15-15-15-------------------------------------|
D|---------------------------------------------------------------------------|
A|---------------------------------------------------------------------------|
D|---------------------------------------------------------------------------|

  Guitar 2  1:56
e|---------------------------------------------------------------------------|
B|12-12-12-12-12-12----------------------------------------------------------|
G|15-15-15-15-15-15----------------------------------------------------------|
D|---------------------------------------------------------------------------|
A|---------------------------------------------------------------------------|
D|----------------------------------------12\--------------------------------|

  Guitar 1  1:59
e|---------------------------------------------------------------------------|
B|---------------------------------------------------------------------------|
G|---------------------------------------------------------------------------|
D|1-1-1---------- 1-1-1-----------9-9-9-----------9-9-9----------------------|x2
A|1-1-1-----------1-1-1-----------9-9-9-----------9-9-9----------------------|
D|1-1-1-----------1-1-1-----------9-9-9-----------9-9-9----------------------|

  Guitar 2  1:59
e|---------------------------------------------------------------------------|
B|-----12-12-12-12-----12-12-12-12------7--7--7--7-----7--7--7--7------------|
G|-----15-15-15-15-----15-15-15-15-----10-10-10-10----10-10-10-10------------|
D|---------------------------------------------------------------------------|x2
A|---------------------------------------------------------------------------|
D|---------------------------------------------------------------------------|

 Both Guitars  2:12
e|---------------------------------------------------------------------------|
B|---------------------------------------------------------------------------|
G|---------------------------------------------------------------------------|
D|11------10-10-10--11------4------------------------------------------------|
A|9--(x13)10-10-10--x--(x13)4------------------------------------------------|
D|9-------10-10-10--9-------4------------------------------------------------|

   Guitar 1
e|-----------------------------------------|-------------|-------------------|
B|-----------------------------------------|-------------|-------------------|
G|-----------------------------------------|-------------|-------------------|
D|1-1-1--1-1-1--1-1-1--1-1-1--4-4-4--4-4-4-|-4-6-4-3-4-1-|-4-6-4-3-4-3-------|x2
A|1-1-1--1-1-1--1-1-1--1-1-1--4-4-4--4-4-4-|-4-6-4-3-4-1-|-4-6-4-3-4-3-------|
D|1-1-1--1-1-1--1-1-1--1-1-1--4-4-4--4-4-4-|-4-6-4-3-4-1-|-4-6-4-3-4-3-------|
                  On 2nd time change this section--^ with this--^
  Guitar 2
e|---------------------------------------------------------|-----------------------|
B|---------------------------------------------------------|-----------------------|
G|10-11-10-11-10-11-10-13-10(x2)--8-10-8-10-8-10-8-11-8(x2)|-----11-10-13-10-11-10-|
D|---------------------------------------------------------|-8-8-------------------|x2
A|---------------------------------------------------------|-----------------------|
D|---------------------------------------------------------|-----------------------|
PM  .  .  .  .  .  .  .  .  .      .  . .  . .  . .  . .On 2nd time add this-^

 Guitar 1 2:33
e|---------------------------------------------------------------------------|
B|---------------------------------------------------------------------------|
G|---------------------------------------------------------------------------|
D|9-9-9-9-9-9-9-4-4-4-4-4-4-4-3-3-3-3-3-3-3-1-1-1-1-1-1-1--------------------|
A|9-9-9-9-9-9-9-4-4-4-4-4-4-4-3-3-3-3-3-3-3-1-1-1-1-1-1-1--------------------|
D|9-9-9-9-9-9-9-4-4-4-4-4-4-4-3-3-3-3-3-3-3-1-1-1-1-1-1-1--------------------|

Guitar 2  2:33
e|---------------------------------------------------------------------------|
B|---------------------------------------------------------------------------|
G|---------------------------------------------------------------------------|
D|----8-----8-------6-----6-------4-----4-------4-----4----------------------|
A|------9-9-----------4-4-----------3-3-----------1-1------------------------|
D|9-9-----------4-4-----------3-3-----------1-1------------------------------|

  Guitar 1
e|---------------------------------------------------------------------------|
B|---------------------------------------------------------------------------|
G|---------------------------------------------------------------------------|
D|9-9-9-9-9-9-9-4-4-4-4-4-4-4-3-3-3-3-3-3-3-4-3-3-8-6-6----------------------|
A|9-9-9-9-9-9-9-4-4-4-4-4-4-4-3-3-3-3-3-3-3-4-3-3-8-6-6----------------------|
D|9-9-9-9-9-9-9-4-4-4-4-4-4-4-3-3-3-3-3-3-3-4-3-3-8-6-6----------------------|

 Guitar 2
e|---------------------------------------------------------------------------|
B|---------------------------------------------------------------------------|
G|---------------------------------------------------------------------------|
D|----8-----8-------6-----6-------4-----4---4-3-3-8-6-6----------------------|
A|------9-9-----------4-4-----------3-3-----4-3-3-8-6-6----------------------|
D|9-9-----------4-4-----------3-3-----------4-3-3-8-6-6----------------------|

  Guitar 1 2:46
e|---------------------------------------------------------------------------|
B|---------------------------------------------------------------------------|
G|---------------------------------------------------------------------------|
D|9-9-9-9-4-4-4-4-3-3-3-3-1-1-1-1--------------------------------------------|
A|9-9-9-9-4-4-4-4-3-3-3-3-1-1-1-1--------------------------------------------|
D|9-9-9-9-4-4-4-4-3-3-3-3-1-1-1-1--------------------------------------------|

  Guitar 2 2:46
e|---------------------------------------------------------------------------|
B|---------------------------------------------------------------------------|
G|---------------------------------------------------------------------------|
D|8-8-8-8-6-6-6-6-6-6-6-6-4-4-4-4--------------------------------------------|
A|9-9-9-9-4-4-4-4-3-3-3-3-1-1-1-1--------------------------------------------|
D|9-9-9-9-4-4-4-4-3-3-3-3-1-1-1-1--------------------------------------------|

  Guitar 1 2:52
e|---------------------------------------------------------------------------|
B|---------------------------------------------------------------------------|
G|---------------------------------------------------------------------------|
D|9-9-9-9-4-4-4-4-3-3-3-3-4-3-3-8-6-6-----1-1-1--9\--------------------------|
A|9-9-9-9-4-4-4-4-3-3-3-3-4-3-3-8-6-6-----1-1-1--9\--------------------------|
D|9-9-9-9-4-4-4-4-3-3-3-3-4-3-3-8-6-6-----1-1-1--9\--------------------------|

  Guitar 2  2:52              Optional PM--------------------------------------|
e|-----------------------------------------------------------------------------|
B|-----------------------------------------------------------------------------|
G|-----------------------------------------------------------------------------|
D|8-8-8-8-6-6-6-6-6-6-6-6-4-3-3-8-6-6-----1-1-1--9\----------------------------|
A|9-9-9-9-4-4-4-4-3-3-3-3-4-3-3-8-6-6-----1-1-1--9\----------------------------|
D|9-9-9-9-4-4-4-4-3-3-3-3-4-3-3-8-6-6-----1-1-1--9\----------------------------|
                              Optional PM---^
 Guitar 1  3:00-3:22
e|---------------------------------------------------------------------------|
B|---------------------------------------------------------------------------|
G|---------------------------------------------------------------------------|
D|1-------2-------4-------3--------------------------------------------------|x2
A|1-(x17)-2-(x17)-4-(x17)-3-(x17)--------------------------------------------|
D|1-------2-------4-------3--------------------------------------------------|

  Guitar 2  3:00-3:22
e|---------9---------------9---------------7---------------7-----------------|
B|---7---7---7---7---7---7---7-------5---5---5---5---5---5---5---------------|
G|10--10------10--10--10------10---8---8-------8---8---8-------8-------------|
D|---------------------------------------------------------------(Continue->)|
A|---------------------------------------------------------------------------|
D|---------------------------------------------------------------------------|
   Guitar 2 (cont.)
e|---------9---------------9----------------11---------------11--------------|
B|---7---7---7---7---7---7---7--------7---7----7---7---7---7----7------------|
G|10--10------10--10--10------10---10--10-------10--10--10--------10-(Cont->)|
D|---------------------------------------------------------------------------|
A|---------------------------------------------------------------------------|
D|---------------------------------------------------------------------------|
  Guitar 2 (cont.)
e|---------------------------------------------------------------------------|
B|11-------11----------11-12-11-11-12----------11-14-14-14-------------------|
G|---13-13----11-11-13----------------11-11-13-----------------------(Cont->)|
D|---------------------------------------------------------------------------|
A|---------------------------------------------------------------------------|
D|---------------------------------------------------------------------------|
Guitar 2  (cont.)
e|---------------------------------------------------------------------------|
B|---------------15-15-16-16-18-18-19-19-------------------------------------|
G|15-15-15-16-15-------------------------------------------------------------|
D|---------------------------------------------------------------------------|
A|---------------------------------------------------------------------------|
D|---------------------------------------------------------------------------|

  Both Guitars 3:23
e|---------------------------------------------------------------------------|
B|---------------------------------------------------------------------------|
G|---------------------------------------------------------------------------|
D|1-------1-------1-------1--------------------------------------------------|
A|1-(x17)-1-(x17)-1-(x17)-1-(x17)--------------------------------------------|
D|1-------1-------1-------1--------------------------------------------------|

  Guitar 1  3:37
e|---------------------------------------------------------------------------------|
B|---------------------------------------------------------------------------------|
G|---------------------------------------------------------------------------------|
D|9xxx9xxx8xxx8xxx11xxx11xxx13xxx13xxx11--9xxx9xxx8xxx8xxx11xxx11xxx4-3-3-8-6-6----|
A|9xxx9xxx8xxx8xxx11xxx11xxx13xxx13xxx11--9xxx9xxx8xxx8xxx11xxx11xxx4-3-3-8-6-6----|
D|9xxx9xxx8xxx8xxx11xxx11xxx13xxx13xxx11--9xxx9xxx8xxx8xxx11xxx11xxx4-3-3-8-6-6----|

  Guitar 2  3:37
e|11-11-11-11-11-9-9-9-9-9-13-13-13-13-13-|14-14-14-14-14|---------------------------|
B|12-12-12-12-12-7-7-7-7-7-11-11-11-11-11-|11-11-11-11-11|---------------------------|
G|----------------------------------------|--------------|---------------------------|x2
D|----------------------------------------|--------------|4-3-3-8-6-6----------------|
A|----------------------------------------|--------------|4-3-3-8-6-6----------------|
D|----------------------------------------|--------------|4-3-3-8-6-6----------------|
                 On 2nd time change this section--^ with this------------------------|
 Guitar 1  3:50
e|---------------------------------------------------------------------------|
B|---------------------------------------------------------------------------|
G|---------------------------------------------------------------------------|
D|9-9-9-9-9-9-9-4-4-4-4-4-4-4-3-3-3-3-3-3-3-1-1-1-1-1-1-1--------------------|
A|9-9-9-9-9-9-9-4-4-4-4-4-4-4-3-3-3-3-3-3-3-1-1-1-1-1-1-1--------------------|
D|9-9-9-9-9-9-9-4-4-4-4-4-4-4-3-3-3-3-3-3-3-1-1-1-1-1-1-1--------------------|

  Guitar 2  3:50
e|---------------------------------------------------------------------------|
B|---------------------------------------------------------------------------|
G|---------------------------------------------------------------------------|
D|----8-----8-------6-----6-------4-----4-------4-----4----------------------|
A|------9-9-----------4-4-----------3-3-----------1-1------------------------|
D|9-9-----------4-4-----------3-3-----------1-1------------------------------|

  Guitar 1
e|---------------------------------------------------------------------------|
B|---------------------------------------------------------------------------|
G|---------------------------------------------------------------------------|
D|9-9-9-9-9-9-9-4-4-4-4-4-4-4-3-3-3-3-3-3-3-4-3-3-8-6-6----------------------|
A|9-9-9-9-9-9-9-4-4-4-4-4-4-4-3-3-3-3-3-3-3-4-3-3-8-6-6----------------------|
D|9-9-9-9-9-9-9-4-4-4-4-4-4-4-3-3-3-3-3-3-3-4-3-3-8-6-6----------------------|

 Guitar 2
e|---------------------------------------------------------------------------|
B|---------------------------------------------------------------------------|
G|---------------------------------------------------------------------------|
D|----8-----8-------6-----6-------4-----4---4-3-3-8-6-6----------------------|
A|------9-9-----------4-4-----------3-3-----4-3-3-8-6-6----------------------|
D|9-9-----------4-4-----------3-3-----------4-3-3-8-6-6----------------------|

  Guitar 1  4:03
e|---------------------------------------------------------------------------|
B|---------------------------------------------------------------------------|
G|---------------------------------------------------------------------------|
D|9-9-9-9-4-4-4-4-3-3-3-3-1-1-1-1--------------------------------------------|
A|9-9-9-9-4-4-4-4-3-3-3-3-1-1-1-1--------------------------------------------|
D|9-9-9-9-4-4-4-4-3-3-3-3-1-1-1-1--------------------------------------------|

  Guitar 2  4:03
e|---------------------------------------------------------------------------|
B|---------------------------------------------------------------------------|
G|---------------------------------------------------------------------------|
D|8-8-8-8-6-6-6-6-6-6-6-6-4-4-4-4--------------------------------------------|
A|9-9-9-9-4-4-4-4-3-3-3-3-1-1-1-1--------------------------------------------|
D|9-9-9-9-4-4-4-4-3-3-3-3-1-1-1-1--------------------------------------------|

  Guitar 1
e|---------------------------------------------------------------------------|
B|---------------------------------------------------------------------------|
G|---------------------------------------------------------------------------|
D|9-9-9-9-4-4-4-4-3-3-3-3--1-1-1---------------------------------------------|
A|9-9-9-9-4-4-4-4-3-3-3-3--1-1-1---------------------------------------------|
D|9-9-9-9-4-4-4-4-3-3-3-3--1-1-1---------------------------------------------|

  Guitar 2
e|---------------------------------------------------------------------------|
B|---------------------------------------------------------------------------|
G|---------------------------------------------------------------------------|
D|8-8-8-8-6-6-6-6-6-6-6-6--1-1-1---------------------------------------------|
A|9-9-9-9-4-4-4-4-3-3-3-3--1-1-1---------------------------------------------|
D|9-9-9-9-4-4-4-4-3-3-3-3--1-1-1---------------------------------------------|

  Both Guitars
e|---------------------------------------------------------------------------|
B|---------------------------------------------------------------------------|
G|---------------------------------------------------------------------------|
D|1-1-1--1-1-1--1-1-1--------------------------------------------------------|
A|1-1-1--1-1-1--1-1-1--------------------------------------------------------|
D|1-1-1--1-1-1--1-1-1--------------------------------------------------------|

===============================================================================

            
            
Suggest correction
Creating personal tab
Creating personal tab
You can edit any tab online and save it as your Personal.

You can edit, replace or remove any tab part or add personal notes – all changes will be seen only by you.

Personal tabs can be accessed anytime from any device, even offline.
Learn more »
Give kudos to tab author, rate the tab!
1 2 3 4 5
comments
print report bad tab
1 comment total.
0 reply
dustin.smith.12 10 Jan 02, 2014 09:18 AM

i was pretty impressed that someone bothered to tab out one of my songs! good try...but you got started wrong...tune your guitar down a half step...and then i think you'll get it dead on! everything on that CD is in Drop C#

guest
You may want to rate the tab now too:
select rating
Wanna post a correction for this tab? Suggest correction