Oops, an error
Loading. Please wait.

Miss World tab

version 1
version 1

Interactive

by Hole
27,382 views 33 this week
3 commentsread comments
1 2 3 4 5
x 14
add to favorites
×
Save as Personal and add changes to this tab that will be seen only by you. Learn more ›
×
You can save this tab as Personal to edit and correct it or add notes. All changes will be seen only by you. Learn more »
launch autoscroll
font size
0
reset
how to read this tab
guitar tuner
edit
Autoscroll
slow
fast
+/-
esc
set tempo
stop
Author
Standard tuning (EADGBE)

[Intro]
I am the girl......
E|------------2---2-2----1---1-1-1--3---3-3-3-3-----------|
B|--3---3-3---3---3-3----1---1-1-1--1---1-1-1-1-----------|
G|--0---0-0---2---2-2----2---2-2-2--0---0-0-0-0-----------|
D|--0---0-0---0---0-0----3---3-3-3--2---2-2-2-2-----------|
A|--0---0-0---x---x-x----x---x-x-x--3---3-3-3-3-----------|
E|--3---3-3---x---x-x----x---x-x-x--x---x-x-x-x-----------|

Rest of the song pretty much:
guitar 1:
E|---------------------------------------------------------------------|
B|---------------------------------------------------------------------|
G|-------------------------------------9-9-9-9/-7-7-7-7/-5-5-5-5-5-5-5-|
D|-5-5-5-5/--7-7-7-7/--9-9-9-9-9-9-9---x-x-x-x/-x-x-x-x/-x-x-x-x-x-x-x-|
A|-x-x-x-x/--x-x-x-x/--x-x-x-x-x-x-x---7-7-7-7/-5-5-5-5/-3-3-3-3-3-3-3-|
E|-3-3-3-3/--5-5-5-5/--7-7-7-7-7-7-7-----------------------------------|
Repeat

Guitar 2:
E|---------------------------------------------------------------------|
B|---------------------------------------------------------------------|
G|-7-7-7-7/-9-9-9-9/--11-11-11-11-11-11-11---11-11-11-11/-9-9-9-9/-7-7-|
D|-x-x-x-x/-x-x-x-x/--x--x--x--x--x--x--x----x--x--x--x-/-x-x-x-x/-x-x-|
A|-5-5-5-5/-7-7-7-7/--9--9--9--9--9--9--9----9--9--9--9-/-7-7-7-7/-5-5-|
E|---------------------------------------------------------------------|

Hope that doesn't suck too bad. if ya know another way to play it let me know.

Lyrics:

I am the girl you know, can't look you in the eye
I am the girl you know, so sick I cannot try
And I am the one you want, can't look you in the eye
I am the girl, you know I lie, I lie and lie
I'm Miss World, somebody kill me
Kill me pills
No one cares, my friends
My friend
I'm Miss World, watch me break and watch me burn
No one is listening, my friend
Now I've made my bed, I'll lie in it
I've made my bed, I'll die in it
I've made my bed, I'll lie in it
I've made my bed, I'll die in it

Cute girls watch when I eat ether
Suck me under
Maybe forever, my friend
Now I've made my bed, I'll lie in it
I've made my bed, I'll die in it
I've made my bed, I'll cry in it
I've made my bed, I'll lie in it
I am the girl you know, can't look you in the eye

************************************

| x  Dead note
| /  Slide up

************************************

            
            
Suggest correction
Creating personal tab
Creating personal tab
You can edit any tab online and save it as your Personal.

You can edit, replace or remove any tab part or add personal notes – all changes will be seen only by you.

Personal tabs can be accessed anytime from any device, even offline.
Learn more »
comments
print report bad tab
3 comments total.
0 reply
Distilla_Queen6 20 Apr 26, 2004 08:00 PM

This tab is really good. I love this song. Now I can play it thanx dude

0 reply
Brody GuitarGod 31 Mar 17, 2006 06:10 PM

thanX this tab is great thanX for the help! =D
~melody~

0 reply
AvrilFanUK 10 Sep 17, 2006 12:22 PM

Awesome tab! Thanks!

guest
You may want to rate the tab now too:
select rating
Wanna post a correction for this tab? Suggest correction