Oops, an error
Loading. Please wait.

She Walks On Me tab

version 2
version 2

Whole song

Interactive

by Hole
2,792 views 3 this week
3 commentsread comments
1 2 3 4 5
x 6
add to favorites
×
Save as Personal and add changes to this tab that will be seen only by you. Learn more ›
×
You can save this tab as Personal to edit and correct it or add notes. All changes will be seen only by you. Learn more »
launch autoscroll
font size
0
reset
how to read this tab
guitar tuner
edit
Autoscroll
slow
fast
+/-
esc
set tempo
stop
Author
Difficulty
Title : She Walks On Me
Artist : Hole
Album : Live Through This

Standard Tuning

Heavy Distorsion

This is my very first tab, feel free to comment.
____________________________________________________________________________

Intro 


E------------------------|
A-----------2~~~~~-------|  
D------------------------|
G--2h4-4-4---------------|
B------------------------|
E------------------------|

Strum very fast on this part

E-9-9-9-9-10-10-10-10-11-11-11-11-|
A---------------------------------|
D---------------------------------|
G---------------------------------|
B---------------------------------|
E---------------------------------|

E-12-12-12-12-13-13-13-13-14-14-14-14-15-15-15-15-|
A-------------------------------------------------|
D-------------------------------------------------|
G-------------------------------------------------|
B-------------------------------------------------|
E-------------------------------------------------|


Verses : Play that on verses and chorus

          
E-------------------------------------------------|
A-------------------------------------------------|
D---------9-9-9-9--8-8-8-8------------------------| Listen to the song
G--7-7-7--9-9-9-9--8-8-8-8--9-9-9-9---------------| to catch the beat
B--7-7-7--7-7-7-7--6-6-6-6--9-9-9-9---------------|
E--5-5-5--------------------7-7-7-7---------------|

Bridge :

          
E-------------------------------------------------|
A-------------------------------------------------|
D-------------------------------------------------|
G---7~~~~~--10~~~~~-------------------------------|
B---7-------10------------------------------------|
E---5-------8-------------------------------------|


Order :

- Intro
- Verse/Chorus
- Bridge
- Verse/Chorus
- Bridge
- Intro
- Verse/Chorus

Lyrics :

Geeks do not have pedigrees
Or pefect punk rock resumes
Or anorexic magazines
It smells like girl
It smells like girl

She walks over me
She walks over me

Hold you close like we both died
My ever present suicide
My stupid fuck
My blushing bride
Oh tear my heart out
Tear my heart out

She walks over me
She walks over me

I shut my mouth with you for a gag
I use the rest of you for a gag
Yea I gotta shut my mouth with you for a gag
I gotta use the rest of you

Daddy daddy
Please come here
Dont you trash me
Dont you dare
We look the same
We talk the same
We are the same
We are the same

She walks over me
She walks over me

I shut my mouth with you for a gag
I shut my mouth with you for a gag
Yea I gotta shut my mouth with you for a gag
I gotta use the rest of you

Now she sees she walks the same
And now you see she talks the same
You never know what you will get
You never know what youll forget

She walks over me
She walks over me
She walks

Rate Please ! Any comments or suggestions : lysa_petit@hotmail.com

            
            
Suggest correction
Creating personal tab
Creating personal tab
You can edit any tab online and save it as your Personal.

You can edit, replace or remove any tab part or add personal notes – all changes will be seen only by you.

Personal tabs can be accessed anytime from any device, even offline.
Learn more »
comments
print report bad tab
3 comments total.
0 reply
emsote 10 Dec 05, 2009 09:30 AM

easy to play thumbs up :) the bridge has more notes though and i think (just my opinion) that the intro sounds better with doing 3h5 5 5 on the G , then the next note being a 5 on the D string ! anyways excellent tab

-1 reply
emsote 10 Dec 05, 2009 09:41 AM

okay, turns out my guitar was out of tune so what i said before, dont pay attention to it, and plus, i got all my string names mixed up! heres how i think it should be!

E------------------------
B------------------------
G--------------4~~~------
D---2h4-4-4-4------------
A------------------------
E------------------------

0 reply
emsote 10 Dec 05, 2009 09:43 AM

THE TAB I WROTE ABOVE IS THE INTRO! lol i know im writing alot of comments but i cant delete and i just cant seem to get it right in one comment! What i need to say is, even though my guitar was out of tune when i wrote the first comment, I still think the bridge has more notes! (i needed to say that because i wrote dont pay attention that coomment)

guest
You may want to rate the tab now too:
select rating
Wanna post a correction for this tab? Suggest correction