Oops, an error
Loading. Please wait.

Mixdown tab

3,204 views 3 this week
2 commentsread comments
1 2 3 4 5
1 last vote to show rating
add to favorites
×
Save as Personal and add changes to this tab that will be seen only by you. Learn more ›
×
You can save this tab as Personal to edit and correct it or add notes. All changes will be seen only by you. Learn more »
launch autoscroll
font size
0
reset
how to read this tab
guitar tuner
edit
Autoscroll
slow
fast
+/-
esc
set tempo
stop
Song: Mixdown
Artist: Holiday Parade
Tabber: m Emmer 0019
Tuning: Standard

Here is the song "Mixdown" by the band Holiday Parade.  It has a very nice intro with the acoustic guitar.
CAPO 1st Fret

INTRO:                     
e:---3--3-3-3--3-3--3-3-3-3--3-3--3--3-3-3--3-3--3-3-3-3-3-3-3-3--|
B:---3--3-3-3--3-3--3-3-3-3--3-3--3--3-3-3--3-3--3-3-3-3-3-3-3-3--|
G:---0--0-0-0--2-2--0-0-0-0--2-2--0--0-0-0--2-2--0-0-0-0-0-0-0-0--|
D:---0--0-0-0--0-0--2-2-2-2--0-0--0--0-0-0--0-0--2-2-2-2-2-2-2-2--|
A:---2--2-2-2--x-x--3-3-3-3--x-x--2--2-2-2--x-x--3-3-3-3-3-3-3-3--|
E:---3--3-3-3--x-x--x-x-x-x--x-x--3--3-3-3--x-x--x-x-x-x-x-x-x-x--|

(DO THIS PART 2 TIMES!)
e:---3--3-3-3--x-x-x--3-3--3-3-3-3--x-x-x--3-3--3--3-3-3--x-x-x--3-3--3-3-3-3-3-3-3-3--|
B:---3--3-3-3--x-x-x--3-3--3-3-3-3--x-x-x--3-3--3--3-3-3--x-x-x--3-3--3-3-3-3-3-3-3-3--|
G:---0--0-0-0--x-x-x--2-2--0-0-0-0--x-x-x--2-2--0--0-0-0--x-x-x--2-2--0-0-0-0-0-0-0-0--|     
D:---0--0-0-0--x-x-x--0-0--2-2-2-2--x-x-x--0-0--0--0-0-0--x-x-x--0-0--2-2-2-2-2-2-2-2--| 
A:---2--2-2-2--x-x-x--x-x--3-3-3-3--x-x-x--x-x--2--2-2-2--x-x-x--x-x--3-3-3-3-3-3-3-3--|
E:---3--3-3-3--x-x-x--x-x--x-x-x-x--x-x-x--x-x--3--3-3-3--x-x-x--x-x--x-x-x-x-x-x-x-x--|

At the end of the second time do this:

e:---3-3-3-3-3-3-3-3--|
B:---3-3-3-3-3-3-3-3--|
G:---2-2-2-2-2-2-2-2--|
D:---0-0-0-0-0-0-0-0--|
A:---x-x-x-x-x-x-x-x--|
E:---x-x-x-x-x-x-x-x--|


VERSE:
e:---3-3-3-3--3-3-3-3-3-3-3-3--3-3-3-3--3-3-3-3-3-3-3-3---|
B:---3-3-3-3--3-3-3-3-3-3-3-3--3-3-3-3--3-3-3-3-3-3-3-3---|
G:---0-0-0-0--0-0-0-0-0-0-0-0--0-0-0-0--2-2-2-2-2-2-2-2---| x4
D:---0-0-0-0--2-2-2-2-2-2-2-2--0-0-0-0--0-0-0-0-0-0-0-0---|
A:---2-2-2-2--3-3-3-3-3-3-3-3--2-2-2-2--x-x-x-x-x-x-x-x---|
E:---3-3-3-3--x-x-x-x-x-x-x-x--3-3-3-3--x-x-x-x-x-x-x-x---|

e:---3-3-3--3-3-3--3--x-x-x--|
B:---3-3-3--3-3-3--3--x-x-x--|
G:---0-0-2--0-0-2--0--x-x-x--|
D:---0-2-0--0-2-0--2--x-x-x--|
A:---2-3-x--2-3-x--3--x-x-x--| 
E:---3-x-x--3-x-x--x--x-x-x--|

CHORUS: (TWO TIMES)
e:---3--3-3-3--x-x-x--3-3--3-3-3-3--x-x-x--3-3--3--3-3-3--x-x-x--3-3--3-3-3-3-3-3-3-3--|
B:---3--3-3-3--x-x-x--3-3--3-3-3-3--x-x-x--3-3--3--3-3-3--x-x-x--3-3--3-3-3-3-3-3-3-3--|
G:---0--0-0-0--x-x-x--2-2--0-0-0-0--x-x-x--2-2--0--0-0-0--x-x-x--2-2--0-0-0-0-0-0-0-0--|     
D:---0--0-0-0--x-x-x--0-0--2-2-2-2--x-x-x--0-0--0--0-0-0--x-x-x--0-0--2-2-2-2-2-2-2-2--| 
A:---2--2-2-2--x-x-x--x-x--3-3-3-3--x-x-x--x-x--2--2-2-2--x-x-x--x-x--3-3-3-3-3-3-3-3--|
E:---3--3-3-3--x-x-x--x-x--x-x-x-x--x-x-x--x-x--3--3-3-3--x-x-x--x-x--x-x-x-x-x-x-x-x--|

After second time do this:

e:---3-3-3-3-3-3-3-3--3--|
B:---3-3-3-3-3-3-3-3--3--|
G:---2-2-2-2-2-2-2-2--0--|
D:---0-0-0-0-0-0-0-0--2--|
A:---x-x-x-x-x-x-x-x--3--|
E:---x-x-x-x-x-x-x-x--x--|

VERSE:
e:---3-3-3-3--3-3-3-3-3-3-3-3--3-3-3-3--3-3-3-3-3-3-3-3---|
B:---3-3-3-3--3-3-3-3-3-3-3-3--3-3-3-3--3-3-3-3-3-3-3-3---|
G:---0-0-0-0--0-0-0-0-0-0-0-0--0-0-0-0--2-2-2-2-2-2-2-2---| x4
D:---0-0-0-0--2-2-2-2-2-2-2-2--0-0-0-0--0-0-0-0-0-0-0-0---|
A:---2-2-2-2--3-3-3-3-3-3-3-3--2-2-2-2--x-x-x-x-x-x-x-x---|
E:---3-3-3-3--x-x-x-x-x-x-x-x--3-3-3-3--x-x-x-x-x-x-x-x---|

e:---3-3-3--3-3-3--3--x-x-x--|
B:---3-3-3--3-3-3--3--x-x-x--|
G:---0-0-2--0-0-2--0--x-x-x--|
D:---0-2-0--0-2-0--2--x-x-x--|
A:---2-3-x--2-3-x--3--x-x-x--| 
E:---3-x-x--3-x-x--x--x-x-x--|


CHORUS: (TWO TIMES)
e:---3--3-3-3--x-x-x--3-3--3-3-3-3--x-x-x--3-3--3--3-3-3--x-x-x--3-3--3-3-3-3-3-3-3-3--|
B:---3--3-3-3--x-x-x--3-3--3-3-3-3--x-x-x--3-3--3--3-3-3--x-x-x--3-3--3-3-3-3-3-3-3-3--|
G:---0--0-0-0--x-x-x--2-2--0-0-0-0--x-x-x--2-2--0--0-0-0--x-x-x--2-2--0-0-0-0-0-0-0-0--|     
D:---0--0-0-0--x-x-x--0-0--2-2-2-2--x-x-x--0-0--0--0-0-0--x-x-x--0-0--2-2-2-2-2-2-2-2--| 
A:---2--2-2-2--x-x-x--x-x--3-3-3-3--x-x-x--x-x--2--2-2-2--x-x-x--x-x--3-3-3-3-3-3-3-3--|
E:---3--3-3-3--x-x-x--x-x--x-x-x-x--x-x-x--x-x--3--3-3-3--x-x-x--x-x--x-x-x-x-x-x-x-x--|

After second time do this:

e:---3-3-3-3-3-3-3-3--3--|
B:---3-3-3-3-3-3-3-3--3--|
G:---2-2-2-2-2-2-2-2--0--|
D:---0-0-0-0-0-0-0-0--2--|
A:---x-x-x-x-x-x-x-x--3--|
E:---x-x-x-x-x-x-x-x--x--|


Bridge: 

e:---3-3-3-3--3-3-3-3-3-3-3-3--3-3-3-3--3-3-3-3-3-3-3-3---|
B:---3-3-3-3--3-3-3-3-3-3-3-3--3-3-3-3--3-3-3-3-3-3-3-3---|
G:---0-0-0-0--0-0-0-0-0-0-0-0--0-0-0-0--2-2-2-2-2-2-2-2---| x7
D:---0-0-0-0--2-2-2-2-2-2-2-2--0-0-0-0--0-0-0-0-0-0-0-0---|
A:---2-2-2-2--3-3-3-3-3-3-3-3--2-2-2-2--x-x-x-x-x-x-x-x---|
E:---3-3-3-3--x-x-x-x-x-x-x-x--3-3-3-3--x-x-x-x-x-x-x-x---|

e:---3-3-3-3-3-3-3-3--3-3-3-3-3-3-3-3--3--|
B:---3-3-3-3-3-3-3-3--3-3-3-3-3-3-3-3--3--|
G:---0-0-0-0-0-0-0-0--2-2-2-2-2-2-2-2--0--|
D:---0-0-0-0-0-0-0-0--0-0-0-0-0-0-0-0--2--|
A:---2-2-2-2-2-2-2-2--x-x-x-x-x-x-x-x--3--|
E:---3-3-3-3-3-3-3-3--x-x-x-x-x-x-x-x--x--|

(TIMES 2)
e:---3--3-3-3--x-x-x--3-3--3-3-3-3--x-x-x--3-3--3--3-3-3--x-x-x--3-3--3-3-3-3-3-3-3-3--|
B:---3--3-3-3--x-x-x--3-3--3-3-3-3--x-x-x--3-3--3--3-3-3--x-x-x--3-3--3-3-3-3-3-3-3-3--|
G:---0--0-0-0--x-x-x--2-2--0-0-0-0--x-x-x--2-2--0--0-0-0--x-x-x--2-2--0-0-0-0-0-0-0-0--|     
D:---0--0-0-0--x-x-x--0-0--2-2-2-2--x-x-x--0-0--0--0-0-0--x-x-x--0-0--2-2-2-2-2-2-2-2--| 
A:---2--2-2-2--x-x-x--x-x--3-3-3-3--x-x-x--x-x--2--2-2-2--x-x-x--x-x--3-3-3-3-3-3-3-3--|
E:---3--3-3-3--x-x-x--x-x--x-x-x-x--x-x-x--x-x--3--3-3-3--x-x-x--x-x--x-x-x-x-x-x-x-x--|

After second time do this:

e:---3-3-3-3-3-3-3-3--3--|
B:---3-3-3-3-3-3-3-3--3--|
G:---2-2-2-2-2-2-2-2--0--|
D:---0-0-0-0-0-0-0-0--2--|
A:---x-x-x-x-x-x-x-x--3--|
E:---x-x-x-x-x-x-x-x--x--|


CHORUS: 3 TIMES
e:---3--3-3-3--x-x-x--3-3--3-3-3-3--x-x-x--3-3--3--3-3-3--x-x-x--3-3--3-3-3-3-3-3-3-3--|
B:---3--3-3-3--x-x-x--3-3--3-3-3-3--x-x-x--3-3--3--3-3-3--x-x-x--3-3--3-3-3-3-3-3-3-3--|
G:---0--0-0-0--x-x-x--2-2--0-0-0-0--x-x-x--2-2--0--0-0-0--x-x-x--2-2--0-0-0-0-0-0-0-0--|     
D:---0--0-0-0--x-x-x--0-0--2-2-2-2--x-x-x--0-0--0--0-0-0--x-x-x--0-0--2-2-2-2-2-2-2-2--| 
A:---2--2-2-2--x-x-x--x-x--3-3-3-3--x-x-x--x-x--2--2-2-2--x-x-x--x-x--3-3-3-3-3-3-3-3--|
E:---3--3-3-3--x-x-x--x-x--x-x-x-x--x-x-x--x-x--3--3-3-3--x-x-x--x-x--x-x-x-x-x-x-x-x--|


That's it. I made this up all by myself but i'm almost positive this is correct. Any questions?
Email me at: hockeymasta009@yahoo.com

            
            
Suggest correction
Creating personal tab
Creating personal tab
You can edit any tab online and save it as your Personal.

You can edit, replace or remove any tab part or add personal notes – all changes will be seen only by you.

Personal tabs can be accessed anytime from any device, even offline.
Learn more »
Give kudos to tab author, rate the tab!
1 2 3 4 5
comments
print report bad tab
2 comments total.
0 reply
tco3887 98 Jul 17, 2007 02:30 PM

maybe it's me but that second Dsus in the intro doesn't sound right, when I listen to the song it sounds like its something lower. Good job though man, I've seen them 3 times and I'm pretty sure that's how he plays it.

0 reply
allstar21369 652 Jul 28, 2008 01:54 PM

I think this is what you mean when you say a part in the intro is supposed to go lower...

The "Do do do do..." part...
e|3--3--3-3--x--3--3-3--3--3--3-3--x--3--3--3-3----|
B|3--3--3-3--x--3--3-3--3--3--3-3--x--3--3--3-3----|
G|0--0--0-0--x--2--2-2--0--0--0-0--x--0--0--0-0----|
D|0--0--0-0-----0--0-0--2--2--2-2-----2--2--2-2----|
A|2--2--2-2-------------2--2--2-2-----3--3--3-3----|
E|3--3--3-3-------------0--0--0-0------------------|

e|3--3--3-3--x--3--3-3--3--3--3-3-3-3-3-3----------|
B|3--3--3-3--x--3--3-3--3--3--3-3-3-3-3-3----------|
G|0--0--0-0--x--2--2-2--0--0--0-0-0-0-0-0----------|
D|0--0--0-0-----0--0-0--2--2--2-2-2-2-2-2-----x2---|
A|2--2--2-2-------------3--3--3-3-3-3-3-3----------|
E|3--3--3-3----------------------------------------|

guest
You may want to rate the tab now too:
select rating
Wanna post a correction for this tab? Suggest correction