Oops, an error
Loading. Please wait.

Coastline tab

2,410 views 114 this week
1 commentread comment
1 2 3 4 5
2 more votes to show rating
add to favorites
×
Save as Personal and add changes to this tab that will be seen only by you. Learn more ›
×
You can save this tab as Personal to edit and correct it or add notes. All changes will be seen only by you. Learn more »
launch autoscroll
font size
0
reset
how to read this tab
guitar tuner
edit
Autoscroll
slow
fast
+/-
esc
set tempo
stop
The strumming is the same three chords.

Tuning: CGDGGD    Capo on the 7th fret.

[Intro]
D|-------------------------------------------------------------------------|
G|-------------------------------------------------------------------------|
G|-----0-----------0-----0-----------0-----0-----------0-----0-----------0-|
D|-----------2-----------------2-----------------2-----------------2-------|
G|-----0--------0--------0--------0--------0--------0--------0--------0----|
C|--4-----4-----------4-----4-----------4-----4-----------4-----4----------|

D|------------------------------------|
G|------------------------------------|
G|----0-----------0-----0-----------0-|
D|----------0-----------------0-------|
G|----4--------4--------4--------4----|
C|-4-----4-----------4-----4----------|

D|------------------------------------|
G|------------------------------------|
G|----0-----------0-----0-----------0-|
D|----------4-----------------4-------|
G|----2--------2--------2--------2----|
C|-2-----2-----------2-----2----------|

D|------------------------------------------------------------------------|
G|------------------------------------------------------------------------|
G|----0-----------0-----0-----------0-----0-----------0-----0-----------0-|
D|----------2-----------------2-----------------2-----------------2-------|
G|----0--------0--------0--------0--------0--------0--------0--------0----|
C|-4-----4-----------4-----4-----------4-----4-----------4-----4----------|

D|------------------------------------|
G|------------------------------------|
G|----0-----------0-----0-----------0-|
D|----------0-----------------0-------|
G|----4--------4--------4--------4----|
C|-4-----4-----------4-----4----------|

D|------------------------------------------------------------------------|
G|------------------------------------------------------------------------|
G|----0-----------0-----0-----------0-----0-----------0-----0-----------0-|
D|----------4-----------------4-----------------4-----------------4-------|
G|----2--------2--------2--------2--------2--------2--------2--------2----|
C|-2-----2-----------2-----2-----------2-----2-----------2-----2----------|

[Verse]
D|------------------------------------------------------------------------|
G|------------------------------------------------------------------------|
G|----0-----------0-----0-----------0-----0-----------0-----0-----------0-|
D|----------2-----------------2-----------------2-----------------2-------|
G|----0--------0--------0--------0--------0--------0--------0--------0----|
C|-4-----4-----------4-----4-----------4-----4-----------4-----4----------|

D|------------------------------------|
G|------------------------------------|
G|----0-----------0-----0-----------0-|
D|----------0-----------------0-------|
G|----4--------4--------4--------4----|
C|-4-----4-----------4-----4----------|

D|------------------------------------|
G|------------------------------------|
G|----0-----------0-----0-----------0-|
D|----------4-----------------4-------|
G|----2--------2--------2--------2----|
C|-2-----2-----------2-----2----------|

(Play all of this six times and on the last time play this)
D|----------------------------------0-------------------------------|
G|------------------------------------------------------------------|
G|----0-----------0-----0-----------------0-----------0-------------|
D|----------4-----------------4-----------------4-------------------|
G|----2--------2--------2--------2--------2--------2-----2/-4--2--0-|
C|-2-----2-----------2-----2-----------2-----2----------------------|

[Verse 2]
D|-------------------------------------------------------------------|
G|-------------------------------------------------------------------|
G|-----0-----------0-----0-----------0-----0-----------0-------------|
D|-----------2-----------------2-----------------2-------------------|
G|-----0--------0--------0--------0--------0--------0-----2/-4--2--0-|
C|--4-----4-----------4-----4-----------4-----4----------------------|

D|------------------------------------------------------------------|
G|------------------------------------------------------------------|
G|----0-----------0-----0-----------0-----0-----------0-------------|
D|----------0-----------------0-----------------0-------------------|
G|----4--------4--------4--------4--------4--------4-----2/-4--2--0-|
C|-4-----4-----------4-----4-----------4-----4----------------------|

D|------------------------------------------------------------------|
G|------------------------------------------------------------------|
G|----0-----------0-----0-----------0-----0-----------0-------------|
D|----------4-----------------4-----------------4-------------------|
G|----2--------2--------2--------2--------2--------2-----2/-4--2--0-|
C|-2-----2-----------2-----2-----------2-----2----------------------|

D|------------------------------------|
G|------------------------------------|
G|----0-----------0-----0-----------0-|
D|----------0-----------------0-------|
G|----4--------4--------4--------4----|
C|-4-----4-----------4-----4----------|

D|------------------------------------|
G|------------------------------------|
G|----0-----------0-----0-----------0-|
D|----------4-----------------4-------|
G|----2--------2--------2--------2----|
C|-2-----2-----------2-----2----------|

(I can't tell what he plays but it looks like the same chord moved up a few frets, it leads to the strumming 
which uses the same chords. Listen to the song for the strumming pattern, this video will help a lot when you 
are learning how they strum. https://www.youtube.com/watch?v=Cp-1t9B62zc)


************************************

| /   Slide up
| \   Slide down

************************************

            
            
Suggest correction
Creating personal tab
Creating personal tab
You can edit any tab online and save it as your Personal.

You can edit, replace or remove any tab part or add personal notes – all changes will be seen only by you.

Personal tabs can be accessed anytime from any device, even offline.
Learn more »
Give kudos to tab author, rate the tab!
1 2 3 4 5
comments
print report bad tab
1 comment total.
+1 reply
tessakopec2 10 Nov 27, 2017 07:00 PM

This tab is pretty spot on! Well done, love this artist

guest
You may want to rate the tab now too:
select rating
Wanna post a correction for this tab? Suggest correction