Oops, an error
Loading. Please wait.

Money chords

73 views 1 this week
no commentswrite comment
1 2 3 4 5
3 more votes to show rating
add to favorites
×
Save as Personal and add changes to this tab that will be seen only by you. Learn more ›
×
You can save this tab as Personal to edit and correct it or add notes. All changes will be seen only by you. Learn more »
launch autoscroll
font size
0
reset
transpose
0
reset
display chords
guitar tuner
edit
Autoscroll
slow
fast
+/-
esc
set tempo
stop
Author
Difficulty
Strumming
There is no strumming pattern for this song yet. and get +5 IQ
Song: Money
Band: Hollywood Porn Stars
Album: Year Of The Tiger
Year: 2005
Tabber: beranger80@hotmail.com



Intro (0:00)

g---------------------|
d---------------------|
a--5-5-5-5-5-5-5-5-5--|
e---------------------|X2

e--------------------------------------|
b-------------12-12-12-12-12-12-12-12--|
g-------------12-12-12-12-12-12-12-12--|
d-------------12-12-12-12-12-12-12-12--|
a--5-8-5-8-5--10-10-10-10-10-10-10-10--|
e--------------------------------------|

e---------------------------|-------------|
b--12-12-12-12-12-12-12-12--|-------------|
g--12-12-12-12-12-12-12-12--|-------------|
d--12-12-12-12-12-12-12-12--|-------------|
a--10-10-10-10-10-10-10-10--|--5-8-5-8-5--|
e---------------------------|-------------|
                          x3



Verse (0:10)

Dm
Money
                         C
That’s all I have it’s my money
                            G
That’s what you call me for honey
Bb
I’m not gonna give it 
Dm                       C
That’s what I’m working for (money)
                       G
Why do I find it so funny?
Bb
I don’t know and it’s all right
Dm                       C
My favourite Abba song; money!
                      G
My satisfaction, let it be
Bb
Golden teeth and Cadillacs



Chorus (0:43)

G         Dm
I got no ennemies
Bb                F
No time to waste, no limits, no compares
G                Dm
Don’t mind about jealousy,
Bb                 F
It makes me laugh, I just don’t even care
G         Dm
Like electricity,
Bb               F
It turns me on, I’m happy as a child
G                Dm             Bb
Come come Hey, come with me, I’ll show you how
F                       G
It makes you feel somebody else



Bridge (1:09)

e---------------------------|-------------|
b--12-12-12-12-12-12-12-12--|-------------|
g--12-12-12-12-12-12-12-12--|-------------|
d--12-12-12-12-12-12-12-12--|-------------|  X2
a--10-10-10-10-10-10-10-10--|--5-8-5-8-5--|
e---------------------------|-------------|
                          X2



Verse (1:15)

Dm
Money
                         C
That’s all I have it’s my money
                            G  
That’s what you love me for honey
Bb
Thanks but I‘m not givin’ it
Dm                       C
That’s what I‘m living for, money!
                       G
Why do you think I’m so heavy?
Bb
I can’t change, I’m always right
Dm                       C
It's my religion, my story
                      G
My fascination, my hobby
Bb
My blood is expensive wine



Chorus (1:49)

G         Dm
Got so much energy 
Bb                F
I hang around and choose the things I like
G                Dm
Your wife‘s in love with me
Bb                 F
If she comes down we should have some good time
G             Dm
No questions about me
Bb                F
The less I say the more you talk of it
G                Dm            Bb
That’s my philosophy and you should try
F               G
It makes you feel somebody else



Bridge (2:15)

e---------------------------|-------------|
b--12-12-12-12-12-12-12-12--|-------------|
g--12-12-12-12-12-12-12-12--|-------------|
d--12-12-12-12-12-12-12-12--|-------------|  X2
a--10-10-10-10-10-10-10-10--|--5-8-5-8-5--|
e---------------------------|-------------|
                          X2



Outro (2:21)

G
Shout shout, check it out
Dm
Come come, get around
Bb
You oughta come with me
F
You oughta come with me

G
Shout shout, check it out
Dm
Come come, get around
Bb
You oughta come with me
F
You oughta come with me

G
Shout shout, check it out
Dm
Come come, get around
Bb
You oughta come with me
F
You oughta come with me

G
Shout shout, check it out
Dm
Come come, get around
Bb
You oughta come with me

F F    F F   G\

            
            
Suggest correction
Creating personal tab
Creating personal tab
You can edit any tab online and save it as your Personal.

You can edit, replace or remove any tab part or add personal notes – all changes will be seen only by you.

Personal tabs can be accessed anytime from any device, even offline.
Learn more »
Give kudos to tab author, rate the tab!
1 2 3 4 5
comments
print report bad tab
guest
You may want to rate the tab now too:
select rating
Wanna post a correction for this tab? Suggest correction