Oops, an error
Loading. Please wait.

Medicine intro tab

version 1
version 1

Intro

Whole song

13,912 views 30 this week
4 commentsread comments
1 2 3 4 5
x 23
add to favorites
×
Save as Personal and add changes to this tab that will be seen only by you. Learn more ›
×
You can save this tab as Personal to edit and correct it or add notes. All changes will be seen only by you. Learn more »
launch autoscroll
font size
0
reset
how to read this tab
guitar tuner
edit
Autoscroll
slow
fast
+/-
esc
set tempo
stop
Author
Difficulty
All I have is the main riff that plays through the song, still trying to figure out what 
the guitar in the background is playing. Comment if you think there is a problem or 
know what is being played in the background.

 [Intro] Repeats through the song
e|--------------------------------------|
B|--------------------------------------|
G|---4/5-4-2-0-2~----4/5-4-2-0-4--------|
D|-------------------------------2~-----|
A|--------------------------------------|
E|--------------------------------------|

************************************

| /  Slide up
| ~  Vibrato

************************************

            
            
Suggest correction
Creating personal tab
Creating personal tab
You can edit any tab online and save it as your Personal.

You can edit, replace or remove any tab part or add personal notes – all changes will be seen only by you.

Personal tabs can be accessed anytime from any device, even offline.
Learn more »
comments
print report bad tab
4 comments total. Showing first comments. show 1 bad comment
+4 reply
jaqchirac 10 May 09, 2013 09:53 PM

E--------------------------------------|
B-------------------------------------------|
G---4/5-4-2-0-2~----4/5-4-2-0-3/4-----------|
D---------------------------------2~--------|
A-------------------------------------------|
E-------------------------------------------|


Sound's better IMO

+1 reply
jimmyb1999 10 Oct 12, 2015 03:40 PM

it sounds better doing a hammer on pull off instead of sliding IMO

guest
You may want to rate the tab now too:
select rating
Wanna post a correction for this tab? Suggest correction