Oops, an error
Loading. Please wait.
We have an official Sell Your Soul tab made by UG professional guitarists. Check out the tab »
×
3,176 views 3 this week
1 commentread comment
1 2 3 4 5
1 last vote to show rating
add to favorites
×
Save as Personal and add changes to this tab that will be seen only by you. Learn more ›
×
You can save this tab as Personal to edit and correct it or add notes. All changes will be seen only by you. Learn more »
launch autoscroll
font size
0
reset
how to read this tab
guitar tuner
edit
Autoscroll
slow
fast
+/-
esc
set tempo
stop
Author
Difficulty
this is just tha way i play it, so its not perfectly correct. i use drop c but you can 
drop d too. in my cover i play guitar in the verse to but im not going to tab it as "by 
undead" because its a cover


Intro:
gtr. 1
|-------------------------------------|
|-------------------------------------|
|-7---7---10---6---7---7---7---9---7--|x4
|---9---9---9---9---9---9---9---9---9-|
|-------------------------------------|
|-------------------------------------|

after second time gtr. 2 comes in:
gtr. 2: (goes with the drums)
|-------------------|   |------------|
|-------------------|   |------------|
|-------------------|x3 |------------|
|-x-x-x--x-x-x--x-x-|   |x-x-x-\\\\\-|
|-x-x-x--x-x-x--x-x-|   |x-x-x-\\\\\-|
|-x-x-x--x-x-x--x-x-|   |x-x-x-\\\\\-|

|---------------------------------------------------------|
|---------------------------------------------------------|
|---------------------------------------------------------|
|-0-0-0-0-0-0-0-0-2-2-2-2-2-2-2-2-4-4--4-4--4-7-7--7-7--7-|
|-0-0-0-0-0-0-0-0-2-2-2-2-2-2-2-2-4-4--4-4--4-7-7--7-7--7-|
|-0-0-0-0-0-0-0-0-2-2-2-2-2-2-2-2-4-4--4-4--4-7-7--7-7--7-|

|-----------------------------------------------------------|
|-----------------------------------------------------------|
|-----------------------------------------------------------|
|-0-0-0-0-0-0-0-0-2-2-2-2-2-2-2-2-4-4--4-4--4/7-7-7-7-7-7-7-|
|-0-0-0-0-0-0-0-0-2-2-2-2-2-2-2-2-4-4--4-4--4/7-7-7-7-7-7-7-|
|-0-0-0-0-0-0-0-0-2-2-2-2-2-2-2-2-4-4--4-4--4/7-7-7-7-7-7-7-|

the whole song is based off of that part but at the very end it goes:

|----------------------------------------------------------------------|
|----------------------------------------------------------------------|
|----------------------------------------------------------------------|
|-0-0-0-0-0-0-0-0-2-2-2-2-2-2-2-2-4-4--4-4--4--4-4--4-4--4--4-4--4-4-4-|
|-0-0-0-0-0-0-0-0-2-2-2-2-2-2-2-2-4-4--4-4--4--4-4--4-4--4--4-4--4-4-4-|
|-0-0-0-0-0-0-0-0-2-2-2-2-2-2-2-2-4-4--4-4--4--4-4--4-4--4--4-4--4-4-4-|

im not completely done yet but i gotta go

            
            
Suggest correction
Creating personal tab
Creating personal tab
You can edit any tab online and save it as your Personal.

You can edit, replace or remove any tab part or add personal notes – all changes will be seen only by you.

Personal tabs can be accessed anytime from any device, even offline.
Learn more »
Give kudos to tab author, rate the tab!
1 2 3 4 5
comments
print report bad tab
1 comment total.
0 reply
sum41rules 10 Feb 25, 2010 09:59 AM

Intro should be

--7---7---10---6----
----9---9----9---9--

Can hear it very clearly.

guest
You may want to rate the tab now too:
select rating
Wanna post a correction for this tab? Suggest correction