Oops, an error
Loading. Please wait.

This Love This Hate tab

version 2
version 2

Whole song

Interactive

6,614 views 3 this week
no commentswrite comment
1 2 3 4 5
x 4
add to favorites
×
Save as Personal and add changes to this tab that will be seen only by you. Learn more ›
×
You can save this tab as Personal to edit and correct it or add notes. All changes will be seen only by you. Learn more »
launch autoscroll
font size
0
reset
how to read this tab
guitar tuner
edit
Autoscroll
slow
fast
+/-
esc
set tempo
stop
Author
Song: This Love, This Hate
Band: Hollywood Undead
Tuning: Standard (EADGBe)
Tabber: heavydeath7

I saw a tab online of this song, but it wasn't 100% right.

Neither is this, but I feel that it may be a little bit closer.

This song only has some guitar in it, but I am going to tab the entire song anyway.


Intro_(Keyboard)___________________________________X4
e|-13-13-13-15-17-17-17-22-20-20-20181718-15-15-15-17|
B|---------------------------------------------------|
G|---------------------------------------------------|
D|---------------------------------------------------|
A|---------------------------------------------------|
E|---------------------------------------------------|
_|_(Piano)___________________________________________
e|---------------------------------------------------|
B|---------------------------------------------------|
G|---------------------------------------------------|
D|---------------------------------------------------|
A|-------------0-----------1--------------3----------|
E|-1-------------------------------------------------|


Build_(Piano)______
e|-1--3--0---1-----|
B|-------------3---|
G|-----------------|
D|-----------------|
A|-----------------|
E|-----------------|

Chorus_(Guitar)_________________________________________________X4
e|----------------------------------------------------------------|
B|----------------------------------------------------------------|
G|3-3-3-3-3-3-3-3-5-5-5-5-5-5-5-5-7-7-7-7-7-7-7-7-7-7-7-7-7-7-7-7-|
D|3-3-3-3-3-3-3-3-5-5-5-5-5-5-5-5-7-7-7-7-7-7-7-7-7-7-7-7-7-7-7-7-|
A|1-1-1-1-1-1-1-1-3-3-3-3-3-3-3-3-5-5-5-5-5-5-5-5-5-5-5-5-5-5-5-5-|
E|----------------------------------------------------------------|

Breakdown_(Strings)_X8
e|----------------------------------------|
B|--10------------------10----------------|
G|7----10-12-9-10-7---7----10-12-9-10-7---|
D|----------------------------------------|
A|----------------------------------------|
E|----------------------------------------|
_|_(Piano)________________________________
e|----------------------------------------|
B|----------------------------------------|
G|----------------------------------------|
D|----------------------------------------|
A|--------0---------1---------3-----------|
E|1---------------------------------------|


There are more parts, but I am too lazy to put them.


Order:
Intro
Verse
Build
Chorus
Verse
Build
Chorus
Breakdown
Chorus X2


BONUS: Chords! :D

     F
In a time of need
             A
Only few can see what's wrong
                 Bb       
Millions tend to crawl, but only those
               C
Who choose can make it through this all
     F
Only few can sing like lions
         A
Cause we sing until were gone
          Bb
And we've got each others backs
            C
Until we're back where we belong
  F                                    A
A woman held my shield and through the battles we did wrong
  Bb                                   C
A man would tell me wisdom through the static we were gone
    F
And maybe when we're gone
               A
Our names will echo through the stars
      Bb
Every starts got its ending
     C                                 F
Even when we've learn to rise above it all


      Bb       C            Dm
These lies are leading me astray
                       Bb
It's to much for me to stay
              C               Dm
I don't wanna live this destiny

It goes on endlessly
  Bb         C
I see you so please stay strong
     Dm                                  Bb
I'll sing you one last song and then I'm gone
              C               Dm
I don't wanna live this destiny

It goes on endlessly


And we once also had a story too
You can see that only good men come in few
Even in our greatest moments
We may win or we may lose
Every songs got its rules
You've got to learn to make it through
Maybe one day we can choose
How it feels to be a woman or a man
Without rules we're buried underneath
There's a picture glue
So when my body burns in ashes only sing the truth
Let these words strengthen all your views
Because these words were meant for you

These lies are leading me astray
It's to much for me to stay
I don't wanna live this destiny
It goes on endlessly
I see you so please stay strong
I'll sing you one last song and then I'm gone
I don't wanna live this destiny
It goes on endlessly

And now I'm floatin right above my coffin as it closes
I look down and I see sigh
As she's cryin on my mama's shoulder
I look up into the sky as the gates of heaven open
Somethings wrong is this destiny or am I going home
What will happen to my soul
Will I come back I don't know
Will you meet me when it's over and you know
You can meet me here in heaven
Don't you ever let me go

This love, this hate
Is burning me away

These lies are leading me astray
It's to much for me to stay
I don't wanna live this destiny
It goes on endlessly
I see you so please stay strong
I'll sing you one last song and then I'm gone
I don't wanna live this destiny
It goes on endlessly

These lies are leading me astray
It's to much for me to stay
I don't wanna live this destiny
It goes on endlessly

I see you so please stay strong
I'll sing you one last sone and then I'm gone
I don't wanna live this destiny
It goes on endlessly

This love, this hate
It's burning me away
This love, this hate
Is burning me away

            
            
Suggest correction
Creating personal tab
Creating personal tab
You can edit any tab online and save it as your Personal.

You can edit, replace or remove any tab part or add personal notes – all changes will be seen only by you.

Personal tabs can be accessed anytime from any device, even offline.
Learn more »
comments
print report bad tab
guest
You may want to rate the tab now too:
select rating
Wanna post a correction for this tab? Suggest correction