Oops, an error
Loading. Please wait.

Undead tab

version 3
version 3
11,575 views 6 this week
4 commentsread comments
1 2 3 4 5
x 3
add to favorites
×
Save as Personal and add changes to this tab that will be seen only by you. Learn more ›
×
You can save this tab as Personal to edit and correct it or add notes. All changes will be seen only by you. Learn more »
launch autoscroll
font size
0
reset
how to read this tab
guitar tuner
edit
Autoscroll
slow
fast
+/-
esc
set tempo
stop
Author
.=palm mute

Only symbol ya need


Intro/Keyboard/Main Riff/Chorus
Gtr. 1
e|----------------------------------------------------|
B|----------------------------------------------------|
G|----------------------------------------------------|
D|---------7---8---7----5--------5--------------------|
A|------55---5---5---5----8-7--8---8-7-3--------------|
D|----------------------------------------------------|
Gtr. 2                                                    About 16x then
e|----------------------------------------------------|      enter verse
B|----------------------------------------------------|
G|----------------------------------------------------|
D|----------------------------------------------------|
A|------------------------------------------0-0-------|
D|------------------------------------------0-0-------|

Verse
e|----------------------------------------------------|
B|----------------------------------------------------|
G|----------------------------------------------------|
D|----------------------------------------------------|      3x then start
A|--0-0---0-0---0-0---0-0-----------------------------|      with no p.m.
D|--0-0---0-0---0-0---0-0-----------------------------|

          . .   . .   . .

Chorus
Verse
Chorus
Verse
Chorus

Play Outro just like intro.

Pretty Easy song
Learned from Charlie Scene himself
Check it out


http://link.brightcove.com/services/link/bcpid1725961942/bctid3748332001

            
            
Suggest correction
Creating personal tab
Creating personal tab
You can edit any tab online and save it as your Personal.

You can edit, replace or remove any tab part or add personal notes – all changes will be seen only by you.

Personal tabs can be accessed anytime from any device, even offline.
Learn more »
Give kudos to tab author, rate the tab!
1 2 3 4 5
comments
print report bad tab
4 comments total. Showing first comments.
0 reply
masterc1000x 10 Mar 29, 2009 12:08 PM

hey, i saw ur video with charlie scene. can u tab young and sell your soul too if thats not too much? btw, what type of guitar was he using?

0 reply
tabmastar 70 Jul 06, 2009 11:14 PM

fyi the 5s could be 0 on the next string up its easier to play

0 reply
jcmac502 92 Jul 07, 2009 05:15 PM

i think it was a custom tempest. pretty much the same as mine. he had graphics and stuff put on it tho

guest
You may want to rate the tab now too:
select rating
Wanna post a correction for this tab? Suggest correction