Oops, an error
Loading. Please wait.

Undead tab

version 4
version 4
13,412 views 6 this week
2 commentsread comments
1 2 3 4 5
x 7
add to favorites
×
Save as Personal and add changes to this tab that will be seen only by you. Learn more ›
×
You can save this tab as Personal to edit and correct it or add notes. All changes will be seen only by you. Learn more »
launch autoscroll
font size
0
reset
how to read this tab
guitar tuner
edit
Autoscroll
slow
fast
+/-
esc
set tempo
stop
Undead
-------

song- Undead
band- Hollywood Undead
album- Swan Songs

Drop D (D A D G B E)

The other version on this site is correct,
but this is how i play it cuz it sounds better.


INTRO  (synth. arr. for guitar) (play throughout song)

|-----------------------------------|
|-----------------------------------|
|-----------------------------------|
|0-0-7-0-8-0-7-0--------------------|
|----------------10-8-7-8-10-8-7----|
|--------------------------------10-|

(gtrs 1 & 2)

|--------------|-------------|-------------|-----------|-------------|
|--------------|-------------|-------------|-----------|-------------|
|----REST------|-------------|-------------|-----------|-------------|
|--------------|0------------|0------------|0----------|0------------|
|--------------|0------------|0------------|0----------|0------------|
|--------------|0------------|0------------|0----------|0------------|

(gtr 1)

|--------------------------------|--------------------------------| ---
|--------------------------------|--------------------------------|  |
|--------------------------------|--------------------------------|  |
|--------------------------------|--------------------------------|  |
|------------------------------3-|------------------------------3-|  |
|0-0-7-0-8-0-7-0-5-3-2-3-5-3-2---|0-0-7-0-8-0-7-0-5-3-2-3-5-3-2---|  |
                                                                     |
(gtr 2)                                                              2x
                                                                     |
|--------------------------------|--------------------------------|  |
|--------------------------------|--------------------------------|  |
|--------------------------------|--------------------------------|  |
|0-------------------------------|0-------------------------------|  |
|0-------------------------------|0-------------------------------|  |
|0-------------------------------|0-------------------------------| ---


CHORUS 1       (gtr 1)

|--------------------------------|--------------------------------| ---
|--------------------------------|--------------------------------|  |
|--------------------------------|--------------------------------|  |
|--------------------------------|--------------------------------|  |
|------------------------------3-|------------------------------3-|  |
|0-0-7-0-8-0-7-0-5-3-2-3-5-3-2---|0-0-7-0-8-0-7-0-5-3-2-3-5-3-2---|  |
                                                                     |
(gtr 2)                                                              4x
                                                                     |
|--------------------------------|--------------------------------|  |
|--------------------------------|--------------------------------|  |
|--------------------------------|--------------------------------|  |
|0-0-7-0-8-0-7-0-5-3-2-3-5-3-2---|0-0-7-0-8-0-7-0-5-3-2-3-5-3-2---|  |
|------------------------------3-|------------------------------3-|  |
|--------------------------------|--------------------------------| ---


VERSE 1     (gtrs 1 & 2)

|-------------|--------------|--------------|-------------|
|-------------|--------------|--------------|-------------|
|-------------|------REST----|-----REST-----|-----REST----|
|0------------|--------------|--------------|-------------|
|0------------|--------------|--------------|-------------|
|0------------|--------------|--------------|-------------|

|-------------|--------------|--------------|-------------|
|-------------|--------------|--------------|-------------|
|-------------|------REST----|-----REST-----|-----REST----|
|0------------|--------------|--------------|-------------|
|0------------|--------------|--------------|-------------|
|0------------|--------------|--------------|-------------|

|-------------|--------------|--------------|-------------|
|-------------|--------------|--------------|-------------|
|-------------|------REST----|--------------|-----REST----|
|0------------|--------------|0-------------|-------------|
|0------------|--------------|0-------------|-------------|
|0------------|--------------|0-------------|-------------|

(gtr 1)

|--------------------------------|--------------------------------| ---
|--------------------------------|--------------------------------|  |
|--------------------------------|--------------------------------|  |
|--------------------------------|--------------------------------|  |
|------------------------------3-|------------------------------3-|  |
|0-0-7-0-8-0-7-0-5-3-2-3-5-3-2---|0-0-7-0-8-0-7-0-5-3-2-3-5-3-2---|  |
                                                                     |
(gtr 2)                                                              2x
                                                                     |
|--------------------------------|--------------------------------|  |
|--------------------------------|--------------------------------|  |
|--------------------------------|--------------------------------|  |
|0-------------------------------|0-------------------------------|  |
|0-------------------------------|0-------------------------------|  |
|0-------------------------------|0-------------------------------| ---


CHORUS 2       (gtr 1)

|--------------------------------|--------------------------------| ---
|--------------------------------|--------------------------------|  |
|--------------------------------|--------------------------------|  |
|--------------------------------|--------------------------------|  |
|------------------------------3-|------------------------------3-|  |
|0-0-7-0-8-0-7-0-5-3-2-3-5-3-2---|0-0-7-0-8-0-7-0-5-3-2-3-5-3-2---|  |
                                                                     |
(gtr 2)                                                              4x
                                                                     |
|--------------------------------|--------------------------------|  |
|--------------------------------|--------------------------------|  |
|--------------------------------|--------------------------------|  |
|0-0-7-0-8-0-7-0-5-3-2-3-5-3-2---|0-0-7-0-8-0-7-0-5-3-2-3-5-3-2---|  |
|------------------------------3-|------------------------------3-|  |
|--------------------------------|--------------------------------| ---


VERSE 2       (gtrs 1 & 2)

|-------------|--------------|--------------|-------------|
|-------------|--------------|--------------|-------------|
|-------------|------REST----|-----REST-----|-----REST----|
|0------------|--------------|--------------|-------------|
|0------------|--------------|--------------|-------------|
|0------------|--------------|--------------|-------------|

|-------------|--------------|--------------|-------------|
|-------------|--------------|--------------|-------------|
|-------------|------REST----|-----REST-----|-----REST----|
|0------------|--------------|--------------|-------------|
|0------------|--------------|--------------|-------------|
|0------------|--------------|--------------|-------------|

|-------------|--------------|--------------|-------------|
|-------------|--------------|--------------|-------------|
|-------------|------REST----|--------------|-----REST----|
|0------------|--------------|0-------------|-------------|
|0------------|--------------|0-------------|-------------|
|0------------|--------------|0-------------|-------------|

(gtr 1)

|--------------------------------|--------------------------------| ---
|--------------------------------|--------------------------------|  |
|--------------------------------|--------------------------------|  |
|--------------------------------|--------------------------------|  |
|------------------------------3-|------------------------------3-|  |
|0-0-7-0-8-0-7-0-5-3-2-3-5-3-2---|0-0-7-0-8-0-7-0-5-3-2-3-5-3-2---|  |
                                                                     |
(gtr 2)                                                              2x
                                                                     |
|--------------------------------|--------------------------------|  |
|--------------------------------|--------------------------------|  |
|--------------------------------|--------------------------------|  |
|0-------------------------------|0-------------------------------|  |
|0-------------------------------|0-------------------------------|  |
|0-------------------------------|0-------------------------------| ---


CHORUS 3        (gtr 1)

|--------------------------------|--------------------------------| ---
|--------------------------------|--------------------------------|  |
|--------------------------------|--------------------------------|  |
|--------------------------------|--------------------------------|  |
|------------------------------3-|------------------------------3-|  |
|0-0-7-0-8-0-7-0-5-3-2-3-5-3-2---|0-0-7-0-8-0-7-0-5-3-2-3-5-3-2---|  |
                                                                     |
(gtr 2)                                                              4x
                                                                     |
|--------------------------------|--------------------------------|  |
|--------------------------------|--------------------------------|  |
|--------------------------------|--------------------------------|  |
|0-0-7-0-8-0-7-0-5-3-2-3-5-3-2---|0-0-7-0-8-0-7-0-5-3-2-3-5-3-2---|  |
|------------------------------3-|------------------------------3-|  |
|--------------------------------|--------------------------------| ---


VERSE 3          (gtrs 1 & 2)

|-------------|--------------|--------------|-------------|
|-------------|--------------|--------------|-------------|
|-------------|------REST----|--------------|-----REST----|
|0------------|--------------|0-------------|-------------|
|0------------|--------------|0-------------|-------------|
|0------------|--------------|0-------------|-------------|

|-------------|--------------|--------------|-------------|
|-------------|--------------|--------------|-------------|
|-------------|------REST----|--------------|-----REST----|
|0------------|--------------|0-------------|-------------|
|0------------|--------------|0-------------|-------------|
|0------------|--------------|0-------------|-------------|

(gtr 1)

|--------------------------------|--------------------------------| ---
|--------------------------------|--------------------------------|  |
|--------------------------------|--------------------------------|  |
|--------------------------------|--------------------------------|  |
|------------------------------3-|------------------------------3-|  |
|0-0-7-0-8-0-7-0-5-3-2-3-5-3-2---|0-0-7-0-8-0-7-0-5-3-2-3-5-3-2---|  |
                                                                     |
(gtr 2)                                                              2x
                                                                     |
|--------------------------------|--------------------------------|  |
|--------------------------------|--------------------------------|  |
|--------------------------------|--------------------------------|  |
|0-------------------------------|0-------------------------------|  |
|0-------------------------------|0-------------------------------|  |
|0-------------------------------|0-------------------------------| ---


CHORUS 4        (gtrs 1)

|--------------------------------|--------------------------------| ---
|--------------------------------|--------------------------------|  |
|--------------------------------|--------------------------------|  |
|--------------------------------|--------------------------------|  |
|------------------------------3-|------------------------------3-|  |
|0-0-7-0-8-0-7-0-5-3-2-3-5-3-2---|0-0-7-0-8-0-7-0-5-3-2-3-5-3-2---|  |
                                                                     |
(gtr 2)                                                              4x
                                                                     |
|--------------------------------|--------------------------------|  |
|--------------------------------|--------------------------------|  |
|--------------------------------|--------------------------------|  |
|0-0-7-0-8-0-7-0-5-3-2-3-5-3-2---|0-0-7-0-8-0-7-0-5-3-2-3-5-3-2---|  |
|------------------------------3-|------------------------------3-|  |
|--------------------------------|--------------------------------| ---


Outro        (gtrs 1 & 2)

|-------------|--------------|--------------|--------------|------------|
|-------------|--------------|--------------|--------------|------------|
|-------------|--------------|--------------|--------------|------------|
|0-0----------|0-0-----------|0-0-----------|0-0-----------|0-0---------|
|0-0----------|0-0-----------|0-0-----------|0-0-----------|0-0---------|
|0-0----------|0-0-----------|0-0-----------|0-0-----------|0-0---------|


That's it. Hope you enjoy. It's reayy really easy.

            
            
Suggest correction
Creating personal tab
Creating personal tab
You can edit any tab online and save it as your Personal.

You can edit, replace or remove any tab part or add personal notes – all changes will be seen only by you.

Personal tabs can be accessed anytime from any device, even offline.
Learn more »
comments
print report bad tab
2 comments total.
0 reply
tak666 10 Feb 26, 2009 03:26 PM

great job man i didnt know this song had guitar but whatever .
mad props.

tak(the anarchy kid)

0 reply
sum41rules 10 Feb 25, 2010 10:14 AM

I reckon that the bit where you're playing the riff on the low D string is the bass...at least it sounds like it could be, and sounds good on bass so im using that haha Good tab thanks:)

guest
You may want to rate the tab now too:
select rating
Wanna post a correction for this tab? Suggest correction