Oops, an error
Loading. Please wait.

Te Vi tab

157 views 1 this week
no commentswrite comment
1 2 3 4 5
3 more votes to show rating
add to favorites
×
Save as Personal and add changes to this tab that will be seen only by you. Learn more ›
×
You can save this tab as Personal to edit and correct it or add notes. All changes will be seen only by you. Learn more »
launch autoscroll
font size
0
reset
how to read this tab
guitar tuner
edit
Autoscroll
slow
fast
+/-
esc
set tempo
stop
Es una nueva canción de Hombres G muy buena!

INTRO
   E                           C#m                         A    
e|---------------------------|---------------------------|---------------------------|
B|------0-----0-----0-----0--|------0-----0-----0-----0--|------0-----0-----0-----0--|
G|---------------------------|---------------------------|---------------------------|
D|-1/2-----2-----2-----2-----|-1/2-----2-----2-----2-----|-2/4-----4-----4-----4-----| ==>
A|---------------------------|---------------------------|---------------------------|
E|---------------------------|---------------------------|---------------------------|
   E
e|---------------------------|
B|------0-----0------0-----0-|
G|---------------------------|
D|-1/2-----2-----1/2-----2---|
A|---------------------------|
E|---------------------------|

     E
      De pronto te vi

                     C#m
      y pensé que nunca más,

                        A       
      iba a quererme despertar  

                B7
      lejos de ti.


                       E
      Y supe que por ti

                           C#m      
      iba a robarle el cielo al mar

                           A
      y a las estrellas un collar 

             B7
      para ti.


                 E
      Y yo que siempre presumí

                C#m 
      de que nadie me iba a atar

              A
      y que siempre me quise a mi

         B7
      sobre todo lo demás.


                    C#m    A
      De pronto te vi

                  E
       y tu me miraste a mi

                     C#m        A
      cambiaste mi vida justo ahí

                     E 
      sólo porque te vi.


SOLO

e|------12-11--7--7/9---------|----------------------------------------------------------|
B|-9-10--------------8h9-8h9--|-------------------------------12/14--12 12/-9--9/12--12--|
G|----------------------------|-8/9/8/9/8/9/11--11/13--13/11-----------------------------|
D|----------------------------|----------------------------------------------------------|
A|----------------------------|----------------------------------------------------------|
E|----------------------------|----------------------------------------------------------|


e|-------12-11-12-16 16-----|--7h9-9-7---7-------------7/9-7-9-7-------12----------------|
B|-9-10---------------------|----------9----7/9-7-9-7-------------9h10-----5--7--5-7/9---|
G|--------------------------|------------------------------------------------------------|
D|--------------------------|------------------------------------------------------------|
A|--------------------------|------------------------------------------------------------|
E|--------------------------|------------------------------------------------------------|


                   A                C#m
      Y ahora entiendo por qué el sol

                 A              C#m
      se ha quedado en mi jardín

                  A        C#m      B7
      porque el aire solo huele a ti.


                   E   
      Y yo que siempre presumí

                C#m
      de mi amada soledad

                 A
      y que siempre quise huir

             B7   
      y no perder mi libertad.


                     C#m    A
      De pronto te vi

                   E
      y tu me miraste a mi

                     C#m        A
      cambiaste mi vida justo ahí

                    E 
      sólo porque te vi.


                     C#m      A    
      Cambiaste mi vida...

                  E      
      porque te vi.


e|-12-11--9-7---------|-12-11-9-7------|--12-11-9-7-----|--12-11-9-7---------|
B|-------------7/9----|-----------3/5--|-----------7/9--|------------3/5-----|
G|--------------------|----------------|----------------|--------------------|
D|--------------------|----------------|----------------|--------------------|
A|--------------------|----------------|----------------|--------------------|
E|--------------------|----------------|----------------|--------------------|


     C#m
e|----4----
B|----5----
G|----6----
D|----6----
A|----4----
E|----4----

     A
e|---5-----
B|---5-----
G|---6-----
D|---7-----
A|---7-----
E|---5-----

     B7
e|---2-----
B|---2-----
G|---4-----
D|---4-----
A|---2-----
E|---2-----


Comentarios: abcres41@

            
            
Suggest correction
Creating personal tab
Creating personal tab
You can edit any tab online and save it as your Personal.

You can edit, replace or remove any tab part or add personal notes – all changes will be seen only by you.

Personal tabs can be accessed anytime from any device, even offline.
Learn more »
Give kudos to tab author, rate the tab!
1 2 3 4 5
comments
print report bad tab
guest
Wanna post a correction for this tab? Suggest correction