Oops, an error
Loading. Please wait.

Todo Lo Que Puedo Decir tab

22 views 1 this week
no commentswrite comment
1 2 3 4 5
3 more votes to show rating
add to favorites
×
Save as Personal and add changes to this tab that will be seen only by you. Learn more ›
×
You can save this tab as Personal to edit and correct it or add notes. All changes will be seen only by you. Learn more »
launch autoscroll
font size
0
reset
how to read this tab
guitar tuner
edit
Autoscroll
slow
fast
+/-
esc
set tempo
stop
Intro   Riff 1  (2)

Riff 1
   D     G            A
e-----5--3-2h3p2p0----0--------------0--
B----3-------------0--2-----3-2---2h3---
G---2--------------------2------2-------
D--0----------------------2-------------
A---------------------0-------0---------
E--------3------------------------------

D               G        A    Riff 2
 Si ahora te intento abrazar,
D           G     A
 sé que te separarás,
D               D/C#   Bm
 si ahora te intento decir,
            Bm/A     G                    G
cuanto lo siento yo sé, que no me escucharás.


Si ahora te tiendo mi mano,
seguro que te asustaré,
todo lo que puedo decir,
es que te quiero y no quiero perderte,
      A
no quiero perderte.

CORO
   Em9                A                      Dmaj7     Em9  022030
Ya sé, que no te he dado lo que esperabas de mí,     Dmaj7  XX0222
           Bm                     Em9
ya sé que no he sido demasiado sutil,
             A                        Dmaj7
y que no estado mucho tiempo, junto a ti,
          Bm                    G
pero lo único que ahora puedo decir,
             A     G                  A    Riff 2
es que te quiero, uhh!, de verdad lo siento (cuanto lo siento).
Bm        Bm/A#       Bm7
 Todo lo que puedo decir,
           Riff 3         G
es que te quiero y que siento,
                  D
haberte hecho sufrir.

SOLO  (2:00)
 D       G            A  D          G           A      Riff 2   D
e-----------------------------------------------------------------
B----10-10--8-8p7------------10-10-10-10/12-10-5/7------7-8-10-10-
G--7--------------7-7/9----7-----------------------9---9----------
D-----------------------------------------------------------------
A-----------------------------------------------------------------
E-----------------------------------------------------------------
     D/C#          Bm      Bm/A              G                   A
e-10-9h10p9-----------9-10-12-10-9-9h10p9-------------5---------------
B-----------10-10/12-----------------------10/12---6h7-5h7p5----------
G----------------------------------------11------------------7-7/9-7-6
D---------------------------------------------------------------------
A---------------------------------------------------------------------
E---------------------------------------------------------------------

CORO
         Riff 4
Yo ya sé...

Intro  (2)


Riff 2
e---------------2---
B--2--3--5--8---3---
G-------------------
D--2--4--5--10------
A-------------------
E-------------------

Riff 3
                 G
e-----------------------
B-----------------------
G--0---------------0-2--
D----4-2h4p2p0----0-----
A-----------------------
E----------------3------

Riff 4 (Armónico)
   Em
e--12---
B--12---
G--12---
D-------
A-------
E-------

            
            
Suggest correction
Creating personal tab
Creating personal tab
You can edit any tab online and save it as your Personal.

You can edit, replace or remove any tab part or add personal notes – all changes will be seen only by you.

Personal tabs can be accessed anytime from any device, even offline.
Learn more »
Give kudos to tab author, rate the tab!
1 2 3 4 5
comments
print report bad tab
guest
Wanna post a correction for this tab? Suggest correction