Oops, an error
Loading. Please wait.

Shounen Heart bass

2,667 views 3 this week
3 commentsread comments
1 2 3 4 5
1 last vote to show rating
add to favorites
×
Save as Personal and add changes to this tab that will be seen only by you. Learn more ›
×
You can save this tab as Personal to edit and correct it or add notes. All changes will be seen only by you. Learn more »
launch autoscroll
font size
0
reset
guitar tuner
edit
Autoscroll
slow
fast
+/-
esc
set tempo
stop
Author
-------------------------------------------------------------------------------
			     Shounen Heart - Home Made Kazoku
-------------------------------------------------------------------------------

Tabbed By : Coday
e-mail: dorthysmash@gmail.com

Tuning: Standard

Main Riff (just repeats throughout whole song):
G|--------------------------------------|
D|--------------------------------------|
A|-6-6-6-4h6---6-7-8--6p5-------2h4p2h4-|
E|-------------------------4h6----------|

Bridge (right before it returns to chorus):
G|--------------------------------------|
D|--------------------------------------|
A|-6-6-6-4h6---6-7-8--8---------2h4p2h4-|
E|-------------------------4h6----------|

Change up (where the it is just drums and bass comes in breifly):
G|--------------------------------------|
D|--------------------------------------|
A|--0/4-2h4p2h4-------------------------|
E|--------------------------------------|

This is my first tab, let me know what you think.  I think it is pretty accurate, but 
free to let me know of corrections.  I watch a lot of anime and that bass riff was bugging 
 If anyone has other J-Pop/anime stuff tabbed for bass, send it my way.

            
            
Suggest correction
Creating personal tab
Creating personal tab
You can edit any tab online and save it as your Personal.

You can edit, replace or remove any tab part or add personal notes – all changes will be seen only by you.

Personal tabs can be accessed anytime from any device, even offline.
Learn more »
Give kudos to tab author, rate the tab!
1 2 3 4 5
comments
print report bad tab
3 comments total.
0 reply
thevangris 20 Oct 01, 2009 10:40 AM

Its pretty good.The only part i dont catch its the change

0 reply
The_Man_5000 10 Dec 05, 2009 02:21 PM

actually, i think it goes like this:

G|---------------------------------------------|
D|---------------------------------------------|
A|-6-6-4h6-4-6-----6-7-8--8---------4---4------|
E|---------------------------4-6--6--h6--------|


its a little harder than it should be because an actually bass isnt being played. they programmed it. but overall you did a good job.

0 reply
The_Man_5000 10 Dec 05, 2009 02:21 PM

actually, i think it goes like this:

G|---------------------------------------------|
D|---------------------------------------------|
A|-6-6-4h6-4-6-----6-7-8--8---------4---4------|
E|---------------------------4-6--6--h6--------|


its a little harder than it should be because an actually bass isnt being played. they programmed it. but overall you did a good job.

guest
You may want to rate the tab now too:
select rating
Wanna post a correction for this tab? Suggest correction