Oops, an error
Loading. Please wait.

Haters tab

2,096 views 3 this week
no commentswrite comment
1 2 3 4 5
1 last vote to show rating
add to favorites
×
Save as Personal and add changes to this tab that will be seen only by you. Learn more ›
×
You can save this tab as Personal to edit and correct it or add notes. All changes will be seen only by you. Learn more »
launch autoscroll
font size
0
reset
how to read this tab
guitar tuner
edit
Autoscroll
slow
fast
+/-
esc
set tempo
stop
Author
HOMESHAKE - HATERS


Verse

Bass
-----------------------------------------------
-----------------------------------------------
-------10-11-10---------------10-11-11h13-11---
9---11----------11-99-----11----------------99-

Rythym
-----------------------1-----------------------1
-----------------------1-----------------------1
-----------------------1-----------------------1
-----------------------3-----------------------3
-----------------------4-----------------------4
------------------------------------------------



Chorus



Rythym
--6-------11-------13-------13-13-15------------
--8-------13-------13-------13-13-13------------
--6-------12-------13-------13-13-13------------
--8-------13------------------------------------
--6-------11------------------------------------
------------------------------------------------

Lead
------------------------------------------------
--------------------12--------------------------
--------------------11--------------------------
----------13----------------13-11-10p8----------
--11------11------------------------------------
--13--------------------------------------------




Duet


Rythym
8-11------------------------------------1-
------9-11-11~-----------6---6-8~-------1-
---------------------------8------------1-
----------------------------------------3-
----------------------------------------4-
------------------------------------------

Lead
---------------------------------------
---------------------------------------
---------------------------------------
--------------10-8---------------------
-------------------11-10----------8h10-
---------------------------------------


 DbMaj7
I've been dreaming lots these days
 DbMaj7
In a lot of Crazy Ways
 DbMaj7
I keep loosing it for sure
 DbMaj7

 DbMaj7
Things get bland when she's not round
 DbMaj7
Feel like hiding underground
 DbMaj7
Everything around us hurts
 DbMaj7

Eb7            Abmaj7                 Bbm9
One more step, everything will be just great
Eb7           AbMaj7  
No more prints, we have ourselves a winners plate
Eb7         Abmaj7
I'm so bored, take me to another place
Eb7                AbMaj7
Just can't wait wait, for u-u-us


 DbMaj7
Haters Hating all the time
 DbMaj7
doesn't matter girl you're mine
 DbMaj7
World so green and blue no way
 DbMaj7

 Dmaj7
Haters hating what to do
 Dmaj7
Doesn't matter Ive got you
 Dmaj7
World so green and blue


Eb7            Abmaj7                 Bbm9
One more step, everything will be just great
Eb7           AbMaj7  
No more prints, we have ourselves a winners plate
Eb7         Abmaj7
I'm so bored, take me to another place
Eb7                AbMaj7
Just can't wait wait, for u-u-us





            
            
Suggest correction
Creating personal tab
Creating personal tab
You can edit any tab online and save it as your Personal.

You can edit, replace or remove any tab part or add personal notes – all changes will be seen only by you.

Personal tabs can be accessed anytime from any device, even offline.
Learn more »
Give kudos to tab author, rate the tab!
1 2 3 4 5
comments
print report bad tab
guest
You may want to rate the tab now too:
select rating
Wanna post a correction for this tab? Suggest correction