Oops, an error
Loading. Please wait.

Midnight Snack intro tab

2,077 views 24 this week
2 commentsread comments
1 2 3 4 5
x 3
add to favorites
×
Save as Personal and add changes to this tab that will be seen only by you. Learn more ›
×
You can save this tab as Personal to edit and correct it or add notes. All changes will be seen only by you. Learn more »
launch autoscroll
font size
0
reset
how to read this tab
guitar tuner
edit
Autoscroll
slow
fast
+/-
esc
set tempo
stop
Author
Difficulty
-------------------------------------------------------------------------------
                            MIDNIGHT SNACK - HOMESHAKE
-------------------------------------------------------------------------------
Tabbed by: Noah Moody
E-mail: Noahmoody1228@gmail.com

Tuning: EADGBe STANDARD

This is the main riff to the song.
If anybody has more to contribute I'd add to the tab if needed. 
WILL TRY OUT CORRECTIONS.


e|-----------------------12-11--------------|
B|-----------------------------12-----------|
G|-12--11-9-11--14-13------------13---------|
D|---------------------------------14-13----|
A|------------------------------------------|
E|------------------------------------------|

e|----------------------------------11-12---|
B|--------------------------------12--------|
G|-12--11-9-11--14-13-----------13----------|
D|-------------------------13-14------------|
A|-----------------------14-----------------|
E|------------------------------------------|

e|-----------------------12-11--------------|
B|-----------------------------12-----------|
G|-12--11-9-11--14-13------------13---------|
D|---------------------------------14-13----|
A|------------------------------------------|
E|------------------------------------------|

e|----------------------------------11-12---|
B|--------------------------------12-----13-|
G|-12--11-9-11--14-13-----------13----------|
D|-------------------------13-14------------|
A|-----------------------14-----------------|
E|------------------------------------------|

Tab Corrections By: Foozrule 

************************************

| /   slide up
| \   slide down
| h   hammer-on
| p   pull-off
| ~   vibrato
| +   harmonic
| x   Mute note
| b   Bend
| pb  Pre-bend
| br  Bend release
| pbr Pre-bend release
| brb Bend release bend

************************************

            
            
Suggest correction
Creating personal tab
Creating personal tab
You can edit any tab online and save it as your Personal.

You can edit, replace or remove any tab part or add personal notes – all changes will be seen only by you.

Personal tabs can be accessed anytime from any device, even offline.
Learn more »
Give kudos to tab author, rate the tab!
1 2 3 4 5
comments
print report bad tab
2 comments total.
+1 reply
FoozRule 341 Mar 07, 2016 08:15 AM

Good tab, just a couple of mistakes. I'd say it's more like this:

e|-----------------------12-11--------------|
B|-----------------------------12-----------|
G|-12--11-9-11--14-13------------13---------|
D|---------------------------------14-13----|
A|------------------------------------------|
E|------------------------------------------|

e|----------------------------------11-12---|
B|--------------------------------12-----13-|
G|-12--11-9-11--14-13-----------13----------|
D|-------------------------13-14------------|
A|-----------------------14-----------------|
E|------------------------------------------|

I think he might even play the first bit as chords like this:

e|-3----2---0--2----5--4--------------------|
B|-1-----------1-------4--------------------|
G|-0-----------2-------4--------------------|
D|-2-----------0-------2--------------------|
A|-0----------------------------------------|
E|------------------------------------------|
Am7 D7 Emaj7

+1 reply
Noahevm 547 Mar 13, 2016 03:49 PM

Totally right on my mistake. Thank you

guest
You may want to rate the tab now too:
select rating
Wanna post a correction for this tab? Suggest correction