Oops, an error
Loading. Please wait.

Soy Bomb tab

version 4
version 4

Whole song

Interactive

1,576 views 1 this week
no commentswrite comment
1 2 3 4 5
x 3
add to favorites
×
Save as Personal and add changes to this tab that will be seen only by you. Learn more ›
×
You can save this tab as Personal to edit and correct it or add notes. All changes will be seen only by you. Learn more »
launch autoscroll
font size
0
reset
how to read this tab
guitar tuner
backing track
0:00
0:00
edit
Autoscroll
slow
fast
+/-
esc
set tempo
stop
Author
-----------------------------------------------------------------------------
           SOY BOMB - Honest Bob And The Factory-to-dealer Incentives
-----------------------------------------------------------------------------
Tabbed by: Ian
Email: ian.pwns@yahoo.com
Tuning: Standard

This is my first tab, so please comment if you find any mistakes. 

**UPDATE** 7/1/07-changed a few things, not too much, but it sounds better

Guitar I:

Intro:
e|----------------------|
B|----------------------|
G|----------------------|
D|----------------------| x2 main riff #1
A|----------------------|
E|---0-00-3-33-5-56-5-3-|


e|---0-00-3-33-5-56-5-3-|
B|----------------------|
G|----------------------|
D|----------------------| x2 main riff #2
A|----------------------|
E|----------------------|

"Verse" #1:
e|---0-------------------------------------------------------------|
B|-------3-3-5-3--------------3h4-5--3-3-5-3-----------------------|
G|---------------4-2-0-----------------------4-2-0--------0---0----|
D|---------------------2---------------------------2---0h2-0h2-2\--|
A|-----------------------------------------------------------------|
E|-----------------------------------------------------------------|


e|------------------------------------------------|
B|------------------------------------------------|
G|------------------------------------------------|
D|-----------------5--------7--9------------------| Main Riff #3
A|---------5-3--7----5---9--------2-3-2-0---------|
E|---3--7---------------------------------3-2-----|


e|----------------------|
B|----------------------|
G|----------------------| Main Riff #1
D|----------------------| 
A|----------------------|
E|---0-00-3-33-5-56-5-3-|


e|---0-00-3-33-5-56-5-3-|
B|----------------------|
G|----------------------|
D|----------------------| Main Riff #2
A|----------------------|
E|----------------------|

"Verse" #2
e|---0-------------------------3-------------------------------------------|
B|-------3-3-5-3------------3h5----3h4-5--3-3-5-3--------------------------|
G|---------------4-2-0----------------------------4-2-0-2b--2b-2b-2b-3-2-0-|
D|-------------------2-----------------------------------------------------|
A|-------------------------------------------------------------------------|
E|-------------------------------------------------------------------------|


e|------------------------------------------------|
B|------------------------------------------------|
G|------------------------------------------------|
D|-----------------5--------7--9------------------| Main Riff #3
A|---------5-3--7----5---9--------2-3-2-0---------|
E|---3--7---------------------------------3-2-----|


e|----------------------|
B|----------------------|
G|----------------------|
D|----------------------| Main Riff #1
A|----------------------|
E|---0-00-3-33-5-56-5-3-|


e|---0-00-3-33-5-56-5-3-|
B|----------------------|
G|----------------------|
D|----------------------| Main Riff #2
A|----------------------|
E|----------------------|


e|-0-----------------------------------------------------------------|
B|-------3--5-3----6-6-6p5-3---------3--5-3-----6-6-6p5-3~~~~--------|
G|-----5--------3------------0-----5--------3------------------------| Guitar
D|---5---------------------------5-----------------------------------| Solo A
A|-------------------------------------------------------------------|
E|-------------------------------------------------------------------|

e|-----------------------------------------------------------------|
B|-----3-5-3----6-8-6p5-3--------3-5-3---3-5-------5----5--3----3--|
G|---5-------3------------0-----5------4------------5--5----3--3--4|
D|----------------------------5-----------------------5-------3-----|
A|-----------------------------------------------------------------|
E|-----------------------------------------------------------------|


e|--------------------------------------------------------------------|
B|--------------------------------------------------------------------|
G|--------------------------------------------------------------------|
D|---1010101010---88888---99999-7-9999-7-999-7-99-7-9-----------------|
A|---1010101010---88888---99999-7-9999-7-999-7-99-7-9---2-3-2-0-------|
E|----8-8-8-8-8---66666---77777-7-7777-7-777-7-77-7-7-----------3-2---|


e|----------------------|
B|----------------------|
G|----------------------| X2 Main Riff #1
D|----------------------| 
A|----------------------|
E|---0-00-3-33-5-56-5-3-|


e|--12----15--14--13--12----10/11--12----17--15--14--12--------------|
B|--12----15--14--13--12----10/11--12----17--15--14--12--------------|
G|--12----15--14--13--12----10/11--12----17--15--14--12--------------|
D|-------------------------------------------------------------------| Bridge
A|-------------------------------------------------------------------|
E|-------------------------------------------------------------------|


I'm unsure about this part, it doesn't sound quite right, but all i could get is this. If you can figure it out please put it in a comment or email me and I'll fix it.
*UPDATE*: I think it sounds closer to the song now, but I'm still not sure if its 100% correct.

e|---------------------------------------------------|
B|---------------------------------------------7-10--|
G|----------------------------------------7-9--7--9--|
D|------------------5--------7-------7-9--7-9--------| Alternate Main Riff #3
A|---------5--3--7-----5--9-----7-9--7-9-------------|
E|---3--7-----------------------7-9------------------|


e|-1414-14-14-14--11-11-9-7-9-7-5-5-5-3-------------|
B|--------------------------------------------------|
G|-1111-11-11-11---8--8-6-4-6-4-2-2-2-0-------------|
D|--------------------------------------------------| Guitar Solo B
A|--------------------------------------------------|
E|--------------------------------------------------|

Outro:
e|-------------------------------------------------------------------|
B|-------------------------------------------------------------------|
G|-------------------------------------------------------------------|
D|----------------------------------7--5-----------------------7--5--|
A|-2-3-2-0--------------------------7--5-----------------------7--5--|
E|---------3-2-0-00-3-33-5-5-6-5-3--5--3--0-00-3-33-5-5-6-5-3--5--3--|


e|--0-00-3-33-5-5-6-5-3------------------------------|
B|--0-00-3-33-5-5-6-5-3------------------------------|
G|---------------------------------------------------|
D|----------------------7--5--7--9--10--12-----------|
A|----------------------7--5--7--9--10--12-----------|
E|----------------------5--3--5--7---8--10-----------|

*UPDATE* I changed this part a little, I'm pretty sure its correct now. The last chord isnt the right amount of times, just strum it a bunch and then slide down
e|-------------------------------------------------------3333333333\--|
B|-------------------------------------------------------3333333333\--|
G|------------2-33-2--------2-33-2--------2-33-2-------2-3333333333\--|
D|---2-0-22-5--------5-22-5--------5-22-5--------5-2-5----------------|
A|--------------------------------------------------------------------|
E|--------------------------------------------------------------------|


Guitar II:

e|----------------------|
B|----------------------|
G|----------------------|  This is the same as Main Riff #1, It is played 
D|----------------------|  during Main Riff #2 and repeats the same amount of
A|----------------------|  times
E|---0-00-3-33-5-56-5-3-|

"Verse" #1
e|--------------------------------------------------------------------------|
B|--------------------------------------------------------------------------|
G|--------------------------------------------------------------------------|
D|--------------------------------------------------------------------------|
A|--------------------------------------0-0-3-3-5-56-5-3--------------------|
E|-0-0-3-3-5-56-5-3--0-00-3-33-5-56-5-3------------------0-00-3-33-5-56-5-3-|

"Verse" #2
e|--------------------------------------------------------------------------|
B|--------------------------------------------------------------------------|
G|--------------------------------------------------------------------------|
D|--------------------------------------------------------------------------|
A|-------------------------------------0-00-3-33-5-56-5-3-------------------|
E|-0-0-3-3-5-56-5-3--0-00-3-33-5-56-5-3------------------0-00-3-33-5-56-5-3-|

Bridge:
e|------------------------|
B|------------------------|
G|------------------------|
D|------------------------| x2
A|------------------------|
E|--0-00-3-33-5-56-5-3----|

e|------------------------|
B|------------------------|
G|------------------------|
D|------------------------|
A|------------------------|
E|--0-0-3-3-5-56-5-3------|

e|------------------------|
B|------------------------|
G|------------------------|
D|------------------------|
A|------------------------|
E|--0-00-3-33-5-56-5-3----|

e|------------------------|
B|------------------------|
G|------------------------|
D|------------------------|
A|--0-0-3-33-5-56-5-3-----|
E|------------------------|


e|------------------------|
B|------------------------|
G|------------------------|
D|------------------------|
A|------------------------|
E|--0-00-3-33-5-56-5-3----|


And thats it for the second guitar. If you are working with 2 guitarists, you may want to split up parts to make the song easier to play. An Example would be for main riff #3:


e|------------------------------------------------|
B|------------------------------------------------|
G|------------------------------------------------|
D|-----------------5--------7--9------------------| Have Guitar I play this
A|---------5-3--7----5---9------------------------|
E|---3--7-----------------------------------------|

e|------------------------------------------------|
B|------------------------------------------------|
G|------------------------------------------------| And have guitar II play
D|------------------------------------------------| this right after Guitar I
A|--------------------------------2-3-2-0---------| finishes their part
E|----------------------------------------3-2-----|

It almost sounds like they're doing that in the song, but it's all up to you how you want to play it.

| /  slide up
| \  slide down
| h  hammer-on
| p  pull-off
| ~  vibrato
| +  harmonic
| x  Mute note
=============================================================================

            
            
Suggest correction
Creating personal tab
Creating personal tab
You can edit any tab online and save it as your Personal.

You can edit, replace or remove any tab part or add personal notes – all changes will be seen only by you.

Personal tabs can be accessed anytime from any device, even offline.
Learn more »
Give kudos to tab author, rate the tab!
1 2 3 4 5
comments
print report bad tab
guest
You may want to rate the tab now too:
select rating
Wanna post a correction for this tab? Suggest correction