Oops, an error
Loading. Please wait.

First Of Me tab

version 2
version 2

Whole song

Interactive

3,303 views 1 this week
7 commentsread comments
1 2 3 4 5
x 4
add to favorites
×
Save as Personal and add changes to this tab that will be seen only by you. Learn more ›
×
You can save this tab as Personal to edit and correct it or add notes. All changes will be seen only by you. Learn more »
launch autoscroll
font size
0
reset
how to read this tab
guitar tuner
edit
Autoscroll
slow
fast
+/-
esc
set tempo
stop
Author
Artist: Hoobastank
ALbum: Every Man for Himself
Song: The First of Me
Tuning: Open E

E B E G# B E

Verse/Intro (Palm Muted)
e|-----------------------------------------------------------------|
B|-----------------------------------------------------------------|
G|-1-1-1-1-1-1-1-0-1-1-1-1-1-1-1-1-1-1-1-1-1-1-1-0-0-0-0-0-0-0-0-0-|
E|-2-2-2-2-2-2-2-0-2-2-2-2-2-2-2-2-2-2-2-2-2-2-2-0-1-1-1-1-1-1-1-1-|
B|-3-3-3-3-3-3-3-0-2-2-2-2-2-2-2-2-2-2-2-2-2-2-2-0-2-2-2-2-2-2-2-2-|
E|-----------------------------------------------------------------|

End of verse "Just an empty shell..."
e|-----------------------------------------------------------------|
B|-----------------------------------------------------------------|
G|-1------1-----0--------------------------------------------------|
E|-2(x16)-2(x8)-0-----2------0-----2------0------------------------|
B|-0------3-----0(x8)-2(x13)-0(x3)-2(x13)-0(x3)--------------------|
E|--------------0-----2------0-----2------0------------------------|

Chorus
e|---------------------|
B|---------------------|
G|----------------0--6-|
E|-2----5----0----1--4-|
B|-2----5----0----2--3-|
E|-2----5----0---------|

Outro (Light Distortion - Play with your fingers instead of a pick)
e|-----4-----4-----5-----4-----0-------4-----4-----5-----4-----0---|
B|-------0-----0-----0-----0-------------0-----0-----0-----0-------|
G|-----------------------------------------------------------------|
E|-----------------------------------------------------------------|
B|-----------------------------------------------------------------|
E|-2-------2-----2-----2-----2-----5-------5-----5-----5-----5-----|

e|-----4-----4-----5-----4-----2-------1-----1-------2-----4----4--|
B|-------0-----0-----0-----0-----0-------0-----0-------0-----0-----|
G|-----------------------------------------------------------------|
E|-----------------------------------------------------------------|
B|---------------------------------2-------2-----2-3-----3----3----|
E|-0-------0-----0-----0-----0-------------------------------------|

This time the song's played in Open E. I know most people hate messing with tuning but it's
the easiest and actual way to play the song.

            
            
Suggest correction
Creating personal tab
Creating personal tab
You can edit any tab online and save it as your Personal.

You can edit, replace or remove any tab part or add personal notes – all changes will be seen only by you.

Personal tabs can be accessed anytime from any device, even offline.
Learn more »
comments
print report bad tab
7 comments total. Showing first comments.
0 reply
Matix89 91 Jul 18, 2006 10:16 PM

Well I reviewed it for any mistakes and it looked pretty good to me.. just a couple of stupid typoes in my last statement. I'm positive the outro is exactly how Dan Estrin plays it which sounds awesome, but correct me if I'm wrong. Please leave comments.

0 reply
jaames 1,351 Jul 21, 2006 08:08 PM

sounds great, 5.

0 reply
NickClemett 83 Jul 24, 2006 01:52 AM

It is really good. I have made a simpler version of it which makes the repeat sound a little better (OR NOT)
|-------------------------------------------------------------------
|-------------------------------------------------------------------
|----------------1-2-2-2-2-2-2-2-2-2-2-2-2-2-2-2-2-1----------------
|-4-4-4-4-4-4-4--2-4-4-4-4-4-4-4-4-4-4-4-4-4-4-4-4-2-3-3-3-3-3-3-3--
|-5-5-5-5-5-5-5--------------------------------------4-4-4-4-4-4-4--
|-------------------------------------------------------------------

guest
You may want to rate the tab now too:
select rating
Wanna post a correction for this tab? Suggest correction