Oops, an error
Loading. Please wait.

Say The Same tab

version 1
version 1

Whole song

2,434 views 3 this week
6 commentsread comments
1 2 3 4 5
x 4
add to favorites
×
Save as Personal and add changes to this tab that will be seen only by you. Learn more ›
×
You can save this tab as Personal to edit and correct it or add notes. All changes will be seen only by you. Learn more »
launch autoscroll
font size
0
reset
how to read this tab
guitar tuner
edit
Autoscroll
slow
fast
+/-
esc
set tempo
stop
Author
Artist: Hoobastank
Song: Say The Same
Album: Every Man For Himself
Tuning: Standard

INTRO:
e|--------------------------------------|
B|-7h9-9h10-10h12-7h9-9-------------5-5-|
G|----------------------4-6-7-6-4-7-----|
D|--------------------------------------|
A|--------------------------------------|
E|--------------------------------------|

Keep on repeating until:
e|----------------------------------------------------|
B|-7h9-9h10-10h12-7h9-9-------------5-5-----5-5---5-7-|
G|----------------------4-6-7-6-4-7-----4-7-----4-----|
D|----------------------------------------------------|
A|----------------------------------------------------|
E|----------------------------------------------------|

1st CHORUS:
e|---------------------------------------|
B|---------------------------------------|
G|-9999-999----77-777-9999-999-55-77-777-|
D|-9999-999-55-77-777-9999-999-55-77-777-|
A|-7777-777-55-55-555-7777-777-33-55-555-|
E|----------33---------------------------|

e|-------------------------------|
B|-------------------------------|
G|-9999-999----77-777-555-7-7-77-|
D|-9999-999-55-77-777-555-7-7-77-|
A|-7777-777-55-55-555-333-5-5-55-|
E|----------33-------------------|

PRE-CHORUS:
e|-------------------------------------------|
B|-7h9-9h10-10h12-7h9-9-9-7h9-9h10-10h12-7h9-|
G|-------------------------------------------|
D|-------------------------------------------|
A|-------------------------------------------|
E|-------------------------------------------|

e|------------------------------|
B|------------------------------|
G|-11/13-13/14-14/16-11/13------|
D|--x/x---x/x---x/x---x/x--5--7-| (x2)
A|--9/11-11/12-12/14--9/11-5--7-|
E|-------------------------3--5-|

e|------------------------------------|
B|------------------------------------|
G|-11/13-13/14-14/16-11/13-------5--7-|
D|--x/x---x/x---x/x---x/x--5--7--5--7-| 
A|--9/11-11/12-12/14--9/11-5--7--3--5-|
E|-------------------------3--5-------|

2nd CHORUS:
e|----------------------------------------|
B|----------------------------------------|
G|-------------77-777----------55-77-xxxx-|
D|-2222-222-55-77-777-2222-222-55-77-xxxx-|
A|-2222-222-55-55-555-2222-222-33-55-xxxx-|
E|-0000-000-33--------0000-000------------|

e|------------------------------------------|
B|------------------------------------------|
G|--------------------555-7-7-77-555-7-7-77-|
D|-2222-222-55-77-777-555-7-7-77-555-7-7-77-|
A|-2222-222-55-55-555-333-5-5-55-333-5-5-55-|
E|-0000-000-33------------------------------|

Right before the solo play:
e|---------------------|
B|---------------------|
G|---------------------|
D|-22222222-222-222222-| (x4)
A|-22222222-222-222222-|
E|-00000000-000-000000-|

SOLO:
e|-----------------------|
B|-----------------------|
G|-----------------------|
D|-----------------------| (x3)
A|-5h7p5-4h5-2h4p2-0-2-2-|
E|-----------------------|

e|-----------------------|
B|-----------------------|
G|-----------------------|
D|-----------------------| 
A|-5h7-4h5-7h9-4h5-5-----|
E|-----------------------|

e|-----------------------|
B|-----------------------|
G|-----------------------|
D|-----------------------| (x3)
A|-5h7p5-4h5-2h4p2-0-2-2-|
E|-----------------------|

e|-----------------------|
B|-----------------------|
G|-----------------------|
D|-----------------------| 
A|-5h7-4h5-7h9-9h11-11---|
E|-----------------------|

And then you repeat the 2nd chorus, along with the first half of the intro.

Feel free to comment or rate. 




            
            
Suggest correction
Creating personal tab
Creating personal tab
You can edit any tab online and save it as your Personal.

You can edit, replace or remove any tab part or add personal notes – all changes will be seen only by you.

Personal tabs can be accessed anytime from any device, even offline.
Learn more »
comments
print report bad tab
6 comments total. Showing first comments.
0 reply
Rock God #1 353 May 30, 2006 11:41 PM

nice one. i was having a go at tabbing this earlier, but i think you got closer to the mark. nice.

0 reply
jaames 1,351 May 31, 2006 09:24 AM

Hey dude, I was in the middle of tabbing this too, my intro and first chorus are practically the same as yours so there's no point in me submiting mine, but I'll just post a few things that i had different...I'm sure they cover up the low E on the 5th fret on that 3rd chord.

1st chorus(only two chords different)
e|-----------------------------------------------------------------|
B|-----------------------------------------------------------------|
G|-9--999--9--999----------7--777--9--999--9--999--5--555---7--777-|
D|-9--999--9--999--5--555--7--777--9--999--9--999--5--555---7--777-|
A|-7--777--7--777--5--555--5--555--7--777--7--777--3--333---5--555-|
E|-----------------3--333--5--555------------------3--333---5--555-|

Verse (they play chords instead of just playing the intro again)
e|--------------------------------------------------|
B|--------------------------------------------------|
G|11--13--13---14--14--16--11--13--13--13-----------|
D|-x---x---x----x---x---x---x---x---x---x---5---7---|
A|-9--11--11---12--12--14---9--11--11--11---5---7---|
E|------------------------------------------3---5---|
And I hadn't done the solo yet...

0 reply
_A_X_L_ 275 May 31, 2006 12:31 PM

Yeah, that seems right. I'll check it out later tonight.

guest
You may want to rate the tab now too:
select rating
Wanna post a correction for this tab? Suggest correction