Oops, an error
Loading. Please wait.

Tibetan Pop Stars tab

7,391 views 39 this week
4 commentsread comments
1 2 3 4 5
x 11
add to favorites
×
Save as Personal and add changes to this tab that will be seen only by you. Learn more ›
×
You can save this tab as Personal to edit and correct it or add notes. All changes will be seen only by you. Learn more »
launch autoscroll
font size
0
reset
how to read this tab
guitar tuner
edit
Autoscroll
slow
fast
+/-
esc
set tempo
stop
Author
Tibetan Pop Stars - Hop Along


Tuning:Standard

Intro part 1(When playing the live version):
e|-----------------------------------------------------------------------|
B|-----------------------------------------------------------------------|
G|-----------------------------------------------------------------------|
D|-x-x---x--x--x--x--x----x---x---x---x----x----x---x---x-x-x-x-x-x-x-x--| x2
A|-6/7---7--7--7--7--9----7---11--11--x----x----x---x---7-7-7-7-7-7-7-7--|
E|-x-x---x--x--x--x--x----x---x---x---11---11---11--11--9-9-9-9-9-9-9-9--|

Intro part 2:
e|-----------------------------------------------------------------------|
B|-----------------------------------------------------------------------|
G|------------------------------------------11111111-9-9-9-9-9-9-9-9-----|
D|-x-x-x-x-x-x-x-x-x-x-x-x-x--x--x--x-x-x-x-x-x-x-x--x-x-x-x-x-x-x-x-----| x2
A|-6/7-7-7-7-7-7-9-9-9-7-7-11-11-11-7-7-7-7-7-7-7-7--6-6-6-6-6-6-6-6-----|
E|-0-0-0-0-0-0-0-0-0-0-0-0-0--0--0--9-9-9-9-9-9-9-9--7-7-7-7-7-7-7-7-----|

Verse 1: "How content are with ones..."
e|-----------------------------------------------------------------------|
B|-----------------------------------------------------------------------|
G|-----------------------------------------------------------------------|
D|-----------------------------------------------------------------------| x3
A|-6/7-7-7-7-7-7-7-7-7-7-7-7-7-7-7-7-7-7-7-7-7-7-7-7-7-7-7-7-7-7---------|
E|-0-0-0-0-0-0-0-0-0-0-0-0-0-0-0-9-9-9-9-9-9-9-9-9-9-9-9-9-9-9-9---------|
   . . . . . . . . . . . . . . . . . . . . . . . . . . . . . . .  
Bridge: "...his three..."
e|-----------------------------------------------------------------------|
B|-----------------------------------------------------------------------|
G|-----------------------------------------------------------------------|
D|-9-9-9-9-9-9-9-9-9-9-9-9-9-9-9--7-7-7-7-7-7-7-7-7-7-7-7-7-7-7-7--------| x1
A|-9-9-9-9-9-9-9-9-9-9-9-9-9-9-9--7-7-7-7-7-7-7-7-7-7-7-7-7-7-7-7--------|
E|-7-7-7-7-7-7-7-7-7-7-7-7-7-7-7--5-5-5-5-5-5-5-5-5-5-5-5-5-5-5-5--------|

e|-----------------------------------------------------------------------|
B|-----------------------------------------------------------------------|
G|------------------------------------------11111111-9-9-9-9-9-9-9-9-----|
D|-x-x-x-x-x-x-x-x-x-x-x-x-x--x--x--x-x-x-x-x-x-x-x--x-x-x-x-x-x-x-x-----| x2
A|-6/7-7-7-7-7-7-9-9-9-7-7-11-11-11-7-7-7-7-7-7-7-7--6-6-6-6-6-6-6-6-----|
E|-0-0-0-0-0-0-0-0-0-0-0-0-0--0--0--9-9-9-9-9-9-9-9--7-7-7-7-7-7-7-7-----|


Verse 2: "Honey I left to see..."
e|-----------------------------------------------------------------------|
B|-----------------------------------------------------------------------|
G|-----------------------------------------------------------------------|
D|-----------------------------------------------------------------------| x2
A|-6/7-7-7-7-7-7-7-7-7-7-7-7-7-7-7-7-7-7-7-7-7-7-7-7-7-7-7-7-7-7---------|
E|-0-0-0-0-0-0-0-0-0-0-0-0-0-0-0-9-9-9-9-9-9-9-9-9-9-9-9-9-9-9-9---------|
   . . . . . . . . . . . . . . . . . . . . . . . . . . . . . . .  

Chorus 1: "Stranger in India..."
e|-----------------------------------------------------------------------|
B|-----------------------------------------------------------------------|
G|-----------------------------------------------------------------------|
D|-7-7-7-7-7-------1111111111-------9-9-9-9-9-------1414141414-9-9-9-9-9-| x1
A|-7-7-7-7-7-------1111111111-------9-9-9-9-9-------1414141414-9-9-9-9-9-|
E|-5-5-5-5-5-------9-9-9-9-9--------7-7-7-7-7-------1212121212-7-7-7-7-7-|

e|-----------------------------------------------------------------------|
B|-----------------------------------------------------------------------|
G|------------------------------------------11111111-9-9-9-9-9-9-9-9-----|
D|-x-x-x-x-x-x-x-x-x-x-x-x-x--x--x--x-x-x-x-x-x-x-x--x-x-x-x-x-x-x-x-----| x2
A|-6/7-7-7-7-7-7-9-9-9-7-7-11-11-11-7-7-7-7-7-7-7-7--6-6-6-6-6-6-6-6-----|
E|-0-0-0-0-0-0-0-0-0-0-0-0-0--0--0--9-9-9-9-9-9-9-9--7-7-7-7-7-7-7-7-----|

Verse 3: "I know its true."
e|-----------------------------------------------------------------------|
B|-----------------------------------------------------------------------|
G|-----------------------------------------------------------------------|
D|-----------------------------------------------------------------------| x2
A|-6/7-7-7-7-7-7-7-7-7-7-7-7-7-7-7-7-7-7-7-7-7-7-7-7-7-7-7-7-7-7---------|
E|-0-0-0-0-0-0-0-0-0-0-0-0-0-0-0-9-9-9-9-9-9-9-9-9-9-9-9-9-9-9-9---------|
   . . . . . . . . . . . . . . . . . . . . . . . . . . . . . . .  

Chorus 2: "A stranger in India. Doing okay so far..."
e|-----------------------------------------------------------------------|
B|-----------------------------------------------------------------------|
G|-----------------------------------------------------------------------|
D|-7-7-7-7-7-7-7-7-1111111111111111-9-9-9-9-9-9-9-9-1414141414-9-9-9-9-9-| x1
A|-7-7-7-7-7-7-7-7-1111111111111111-9-9-9-9-9-9-9-9-1414141414-9-9-9-9-9-|
E|-5-5-5-5-5-5-5-5-9-9-9-9-9-9-9-9--7-7-7-7-7-7-7-7-1212121212-7-7-7-7-7-|

Outro part 1: "Nobody deserves you the way that I do."
e|-----------------------------------------------------------------------|
B|-----------------------------------------------------------------------|
G|-----------------------------------9-9-9-9-9---------------------------|
D|-1111111111-------7-7-7-7-7--------9-9-9-9-9-------9-9-9-9-9-----------| x4
A|-1111111111-------7-7-7-7-7--------7-7-7-7-7-------9-9-9-9-9-----------|
E|-9-9-9-9-9--------5-5-5-5-5------------------------7-7-7-7-7-----------|

Outro part 2: "Come home my stranger in India..."
e|-----------------------------------------------------------------------|
B|-----------------------------------------------------------------------|
G|-----------------------------------------------------------------------|
D|-7-7-7-7---------1111111111111111-9-9-9-9-9-9-9-9-1414141414-9-9-9-9-9-| x1
A|-7-7-7-7---------1111111111111111-9-9-9-9-9-9-9-9-1414141414-9-9-9-9-9-|
E|-5-5-5-5---------9-9-9-9-9-9-9-9--7-7-7-7-7-7-7-7-1212121212-7-7-7-7-7-|

e|-----------------------------------------------------------------------|
B|-----------------------------------------------------------------------|
G|-----------------------------------------------------------------------|
D|-7-7-7-7-7-7-7-7-1111111111111111-9-9-9-9-9-9-9-9-1414141414-9-9-9-9-9-| x3
A|-7-7-7-7-7-7-7-7-1111111111111111-9-9-9-9-9-9-9-9-1414141414-9-9-9-9-9-|
E|-5-5-5-5-5-5-5-5-9-9-9-9-9-9-9-9--7-7-7-7-7-7-7-7-1212121212-7-7-7-7-7-|

Outro part 3: "Law..."
e|-----------------------------------------------------------------------|
B|-----------------------------------------------------------------------|
G|-----------------------------------------------------------------------|
D|-x-x---x--x--x--x--x----x---x---x---x----x----x---x---x-x-x-x-x-x-x-x--| x2
A|-6/7---7--7--7--7--9----7---11--11--x----x----x---x---7-7-7-7-7-7-7-7--|
E|-x-x---x--x--x--x--x----x---x---x---11---11---11--11--9-9-9-9-9-9-9-9--|

| /  slide up
| x  Mute note
| .  Palm mute

            
            
Suggest correction
Creating personal tab
Creating personal tab
You can edit any tab online and save it as your Personal.

You can edit, replace or remove any tab part or add personal notes – all changes will be seen only by you.

Personal tabs can be accessed anytime from any device, even offline.
Learn more »
comments
print report bad tab
4 comments total. Showing first comments.
0 reply
Haptephobe 42 Jun 23, 2013 02:38 PM

This is great! Thank you so much!

0 reply
Pop_Music 22 Aug 19, 2014 03:05 PM

Nice tab! Small note on the intro, it sounds like she plays the last bit by keeping her ring and pointer on the 9th and 7th fret of the e and a and slides her pinky from an 11 to a 9 like so:
e|-----------------------------------------------------------------------|
B|-----------------------------------------------------------------------|
G|------------------------------------------11-11/9-9-9------------------|
D|-x-x-x-x-x-x-x-x-x-x-x-x-x--x--x--x-x-x-x-x-x-x-x-x-x------------------|
A|-6/7-7-7-7-7-7-9-9-9-7-7-11-11-11-7-7-7-7-7-7-7-7-7-7------------------|
E|-0-0-0-0-0-0-0-0-0-0-0-0-0--0--0--9-9-9-9-9-9-9-9-9-9------------------|

0 reply
puffie300 82 Oct 25, 2014 07:15 AM

You are correct, I updated it.

guest
You may want to rate the tab now too:
select rating
Wanna post a correction for this tab? Suggest correction