Oops, an error
Loading. Please wait.

Paisley tab

version 2
version 2

Whole song

Interactive

435 views 1 this week
1 commentread comment
1 2 3 4 5
1 last vote to show rating
add to favorites
×
Save as Personal and add changes to this tab that will be seen only by you. Learn more ›
×
You can save this tab as Personal to edit and correct it or add notes. All changes will be seen only by you. Learn more »
launch autoscroll
font size
0
reset
how to read this tab
guitar tuner
edit
Autoscroll
slow
fast
+/-
esc
set tempo
stop
Author
Artist: Hopesfall
Song: Paisley
Album: Magnetic North
Tabbed By Jose Cruz

Its a shame that Hopesfall no longer exists so i made a 
little tribute to that awesome band by tabbing songs from
their last album.

Tuning: Drop Db

Top is Guitar1 and bottom Guitar2

INTRO part1 ******************************************
This part is played using and e-bow
Eb|----------------------------------------|
Bb|-10/6~~~/5~~~/3~~~/13~~~/11~~~/10~~~/---|    
Gb|----------------------------------------| x3
Db|----------------------------------------|
Ab|----------------------------------------|
Db|----------------------------------------|
  |
Eb|----------------------------------------|
Bb|----------------------------------------| Guitar 2
Gb|----------------------------------------| is silent
Db|----------------------------------------|
Ab|----------------------------------------|
Db|----------------------------------------|

Eb|----------------------------------------|
Bb|-10/6~~~/5~~~/3~~~/13~~~/15~~/11~~/10~~-|
Gb|----------------------------------------| x1
Db|----------------------------------------|
Ab|----------------------------------------|
Db|----------------------------------------|
  |
Eb|----------------------------------------|
Bb|----------------------------------------| Guitar 2
Gb|----------------------------------------| is silent
Db|----------------------------------------|
Ab|----------------------------------------|
Db|----------------------------------------|

INTRO part2 ******************************************
Eb|----------------------------------------|
Bb|----------------------------------------|
Gb|----------------------------------------| Guitar1 
Db|----------------------------------------| repeats INTRO
Ab|----------------------------------------|
Db|----------------------------------------|
  |
Eb|-----0~~~-20-------0~~-18-------0~~~-17---1818/12121212/1313--|
Bb|---18-----------18-------------18-----------------------------|
Gb|-17-----------17-------------17-------------------------------|
Db|--------------------------------------------------------------|
Ab|--------------------------------------------------------------|
Db|--------------------------------------------------------------|

INTRO part3 ******************************************
Eb|--------------------------------------------------------------|
Bb|--------------------------------------------------------------|
Gb|--------------------------------------------------------------|
Db|-------7--------10-----9--8----------12-----------------------|
Ab|----5--------8-------------------10---------------------------|
Db|-5--------8---------0--------10-------------------------------|
  |
Eb|-20-18-17-/13--/20-18-17-/12-/13-15-----15--------------------|
Bb|-----------------------------------13~~~----------------------|
Gb|------------------------------------------15~~~15/14-14b15----|
Db|--------------------------------------------------------------|
Ab|--------------------------------------------------------------|
Db|--------------------------------------------------------------|

VERSE 1 *****************************************
Guitar 1 and 2 repeats INTRO part1 and part2 


CHORUS ******************************************
Eb|----------------------------------|
Bb|----------------------------------|
Gb|-5---2---5---2---5---2---5---9----|
Db|-3---0---3---0---3---0---3---7----|
Ab|-3---0---3---0---3---0---3---7----|
Db|-3---0---3---0---3---0---3---7----|
  |
Eb|----------------------------------|
Bb|----------------------------------|
Gb|-5---2---5---2---5---2---5---2----|
Db|-3---0---3---0---3---0---3---0----|
Ab|-3---0---3---0---3---0---3---0----|
Db|-3---0---3---0---3---0---3---0----|

Eb|----------------------------------|
Bb|----------------------------------|
Gb|-5---2---5---2---5---2---5---9-10-|
Db|-3---0---3---0---3---0---3---7-8--|
Ab|-3---0---3---0---3---0---3---7-8--|
Db|-3---0---3---0---3---0---3---7-8--|
  |
Eb|----------------------------------|
Bb|----------------------------------|
Gb|-5---2---5---2---5---2---5---2-3--|
Db|-3---0---3---0---3---0---3---0-1--|
Ab|-3---0---3---0---3---0---3---0-1--|
Db|-3---0---3---0---3---0---3---0-1--|


VERSE 2 ************************************************
Both guitars plays INTRO part3

INTERLUDE **********************************************
Eb|-----0~~~-20-------0~~-18-------0~~~-17---1818/12121212/1313--| 
Bb|---18-----------18-------------18-----------------------------| This is
Gb|-17-----------17-------------17-------------------------------| Guitar 2
Db|--------------------------------------------------------------|
Ab|--------------------------------------------------------------|
Db|--------------------------------------------------------------|
  |
Eb|----------------------------------------|
Bb|---6-5~~---6-5~~---6-5~~---6-5~~-6------| This is a third guitar
Gb|-5-------5-------5-------5--------------| that play from the 
Db|----------------------------------------| interlude up to the end
Ab|----------------------------------------| (actually it sounds 
Db|----------------------------------------|  more like a piano)

After this Guitar1 comes in playing "INTRO part1" and all guitars
repeats this until the end of the song 

Ends with Guitar 2
Eb|-----0---0~~------0~~-------0~~---------|
Bb|---6---6--------6---------6-------------|
Gb|-5----------5-7-------5-7---------------|
Db|----------------------------------------|
Ab|----------------------------------------|
Db|----------------------------------------|

I made this tab before but it had several mistakes so here
is the version 2.0 with less (or none) errors. Notice that
on "INTRO part3" Guitar2 i just tabbed the fret and the string
and not how many times it has to be played, to know that listen
to the song.

            
            
Suggest correction
Creating personal tab
Creating personal tab
You can edit any tab online and save it as your Personal.

You can edit, replace or remove any tab part or add personal notes – all changes will be seen only by you.

Personal tabs can be accessed anytime from any device, even offline.
Learn more »
Give kudos to tab author, rate the tab!
1 2 3 4 5
comments
print report bad tab
1 comment total.
0 reply
fondlemyballs 31 Apr 13, 2012 08:35 AM

this is spot on, thanks for this!

guest
You may want to rate the tab now too:
select rating
Wanna post a correction for this tab? Suggest correction