Oops, an error
Loading. Please wait.

Thine Hour Hast Come tab

version 1
version 1

Whole song

Interactive

by Horde
1,065 views 1 this week
4 commentsread comments
1 2 3 4 5
3 more votes to show rating
add to favorites
×
Save as Personal and add changes to this tab that will be seen only by you. Learn more ›
×
You can save this tab as Personal to edit and correct it or add notes. All changes will be seen only by you. Learn more »
launch autoscroll
font size
0
reset
how to read this tab
guitar tuner
edit
Autoscroll
slow
fast
+/-
esc
set tempo
stop
Author
-------------------------------------------------------------------------------
                          THINE HOUR HAST COME - Horde
-------------------------------------------------------------------------------
Tabbed by: (…)
Email: ajmclaughlin5@aim.com 

Tuning: Standard 

RIFF A
e|-----------------------------------------------|
B|-----------------------------------------------|
G|-----------------------------------------------|
D|-----------------------------------------------|
A|-2-2-4-3-3--2-2-4-3-6--2-2-4-3-3--6-5-5--5-5-4-|
E|-0-0-2-1-1--0-0-2-1-4--0-0-2-1-1--4-3-3--3-3-2-|

LEAD INTO RIFF B
e|-------------------------------|
B|-------------------------------|
G|-^-------------^---------------|
D|-2-------------2---------------|
A|-2-------------2------------7/-|
E|-0-------------0------------7/-|

RIFF B
e|-------------------------------------------------|
B|-------------------------------------------------|
G|-------------------------------------------------|
D|-^-----------5-----6---~-^-----------6-----7---~-|
A|-2-2-5-4-4-3---4-5---5-4-2-2-5-4-4-4---5-6---6-5-|
E|-0-0-3-2-2---------------0-0-3-2-2---------------|

RIFF C
e|-----------------------------------------------------------|
B|-----------------------------------------------------------|
G|-----------------------------------------------------------|
D|-----------------------^-^---------------------------------|
A|-2-2-2-2-2-2-2-2-2-2-2-3-5-4-4-4-4-4-4-4-4-3-3-3-3-3-3-3-3-|
E|-0-0-0-0-0-0-0-0-0-0-0-1-3-2-2-2-2-2-2-2-2-1-1-1-1-1-1-1-1-|

RIFF D
e|------------------------|
B|------------------------|
G|------------------------|
D|------------------------|
A|----~-----~-----~--~--~-|
E|-0--1--0--2--0--1--2--1-|

RIFF E
e|------------------------|
B|------------------------|
G|------------------------|
D|-^--^--^--^--^--^--^--^-|
A|-2--3--2--4--2--3--4--3-|
E|-0--1--0--2--0--1--2--1-|

ORDER
RIFF A  X4
LEAD INTO RIFF B
RIFF B  X4
RIFF C  X4
RIFF B  X4
RIFF C  X4
RIFF D  X2
RIFF E  X4
RIFF A  X4
LEAD INTO RIFF B
RIFF B  X3

| /  slide up
| \  slide down
| h  hammer-on
| p  pull-off
| ~  vibrato
| +  harmonic
| x  Mute note
===============================================================================

            
            
Suggest correction
Creating personal tab
Creating personal tab
You can edit any tab online and save it as your Personal.

You can edit, replace or remove any tab part or add personal notes – all changes will be seen only by you.

Personal tabs can be accessed anytime from any device, even offline.
Learn more »
Give kudos to tab author, rate the tab!
1 2 3 4 5
comments
print report bad tab
4 comments total. Showing first comments.
-1 reply
miguel0210 50 Aug 13, 2008 11:59 PM

Please make tabs for "Invert The Inverted Cross" Please!!!

+1 reply
BloodNChunks 120 Dec 05, 2008 09:41 PM

This tab is horribly WRONG!

HORDE-Thine Hour Hast Come
Jayson Sherlock
From the Album "Hellig Usvart" 1994
Tabbed by Ben Wright, a.k.a. BloodNChunks (iaminchrist3@hotmail.com)

Standard E tuning

Riff 1
e|--------------------------------------------------------------|
b|--------------------------------------------------------------|
g|--------------------------------------------------------------|
d|--------------------------------------------------------------| x4
a|2---2---3---3---2---2---3---6---2---2---3---3---6\5-5--5\4-4--|
E|0---0---1---1---0---0---1---4---0---0---1---1---4\3-3--3\2-2--|

Bass part, guitar plays this (riff 1b):
e|------------------------------------|
b|------------------------------------|
g|------------------------------------|
d|------------------------------------| x1
a|2-----------------2-----------------|
E|0-----------------0-----------------|

When music kicks back in...Riff 2:

e|-----------------------------------------------------------------|
b|-----------------------------------------------------------------|
g|-----------------------------------------------------------------|
d|-----------------6-6-6-6-7-7-7-7-----------------7-7-7-7-8-8-8-8-| x4
a|-2----2-5\4--4-4-4-4-4-4-5-5-5-5-2----2-5-4--4-4-5-5-5-5-6-6-6-6-|
E|-0----0-3\2--2-2-----------------0----0-3-2--2-2-----------------|

When lyrics come in...Riff 3:

e|---------------------------------------------|
b|---------------------------------------------|
g|---------------------------------------------|
d|---------------------------------------------| x4
a|-2--------------------------2--5--4--------3-|
E|-0--------------------------0--3--2--------1-|

Lyrics gone, riff 2 x4,

Lyrics back, riff 3 x4,

Now riff 4:
e|--------------------------------------|
b|--------------------------------------|
g|--------------------------------------|
d|--------------------------------------| x2
a|--------------------------------------|
E|-0----1----0----2----0----1----2----1-|

Then into riff 5:
e|--------------------------------------|
b|--------------------------------------|
g|--------------------------------------|
d|--------------------------------------| x4
a|-2----3----2----4----2----3----4----3-|
E|-0----1----0----2----0----1----2----1-|

~Then Riff 1 x 4,
~Bass Part all over again, with riff 1b x2 of course.
~Shortly scratch 6th string with the side of the pick, then into riff 2 x 3.
~Listen to the song to get it. If you still don't...well you just need to learn how to play.

Now you know how to play Thine Hour Hast Come by HORDE, the best UnBlack Metal project by
Jayson Sherlock, one of the best guys in Metal, on guitar!

Tabbed by Ben Wright, a.k.a. BloodNChunks (iaminchrist3@hotmail.com)
Please give me the credit if you use any part of this tab.

-1 reply
(...) 416 Dec 23, 2008 10:21 AM

uhm... presonally I think your tab is totally wrong.

guest
You may want to rate the tab now too:
select rating
Wanna post a correction for this tab? Suggest correction