Oops, an error
Loading. Please wait.

Sedona tab

version 1
version 1

Whole song

8,629 views 102 this week
6 commentsread comments
1 2 3 4 5
x 13
add to favorites
×
Save as Personal and add changes to this tab that will be seen only by you. Learn more ›
×
You can save this tab as Personal to edit and correct it or add notes. All changes will be seen only by you. Learn more »
launch autoscroll
font size
0
reset
how to read this tab
guitar tuner
edit
Autoscroll
slow
fast
+/-
esc
set tempo
stop
Sedona - Houndmouth
Tabbed by: Lee Baker Jr.
E-mail: lee.bug8800@gmail.com
Tuning: Half Step-Down  D#-G#-C#-F#-A#-D#

[Chords Used]   B7   E    A (Bar it)
D#|------------2--------------------------------------------------------------|
A#|------------0---------2----------------------------------------------------|
F#|------------2----1----2----------------------------------------------------|
C#|------------1----2----2----------------------------------------------------|
G#|------------2----2---------------------------------------------------------|
D#|---------------------------------------------------------------------------|

[Intro]
D#|---------------------------------------------------------------------------|
A#|---9---9---9---9---9---9---9---9---9---9---9---9---9---7---5---7---2-------|
F#|---------------------------------------------------------------------------|
C#|---------------------------------------------------------------------------|
G#|-----------------------------------------------------------------0---------|
D#|-0---0---0---0---0---0---0---0---0---0---0---0---0---0---0---0-------------|

D#|---------------------------------------------------------------------------|
A#|---2---2---2---2---2---2---2---2---2---2---2---4---4---5---5---------------|
F#|---------------------------------------------------------------------------|
C#|---------------------------------------------------------------------------|
G#|-0---0---0---0---0---0---0---0---0---0---0---0---0---0---0-----------------|
D#|---------------------------------------------------------------------------|

[Verse 1] Do this twice
D#|---------------------------------------------------------------------------|
A#|---9---9---9---9---9---9---9---9---9---9---9---9---9---7---5---7---2-------|
F#|---------------------------------------------------------------------------|
C#|---------------------------------------------------------------------------|
G#|-----------------------------------------------------------------0---------|
D#|-0---0---0---0---0---0---0---0---0---0---0---0---0---0---0---0-------------|
                                              
D#|---------------------------------------------------------------------------|
A#|---2---2---2---2---2---2---2---2---2---2---2---4---4---5---5---------------|
F#|---------------------------------------------------------------------------|
C#|---------------------------------------------------------------------------|
G#|-0---0---0---0---0---0---0---0---0---0---0---0---0---0---0-----------------|
D#|---------------------------------------------------------------------------|
 
  Do this once
D#|---------------------------------------------------------------------------|
A#|---9---9---9---9---9---9---9---9---9---9---9---9---9---9---9---7-----------|
F#|---------------------------------------------------------------------------|
C#|---------------------------------------------------------------------------|
G#|---------------------------------------------------------------------------|
D#|-0---0---0---0---0---0---0---0---0---0---0---0---0---0---0---0-------------|

                                     B7 (Finger pick) 
D#|-------------------------------------------------2-------------------------|
A#|---2---2---2---2---2---2---2---2-----0-------0-------0-------0-------------|
F#|-----------------------------------------2---------------2-----------------|
C#|---------------------------------------------------------------------------|
G#|-0---0---0---0---0---0---0---0-----2---2---2---2---2---2---2---------------|
D#|---------------------------------------------------------------------------|

[Chorus] You finger pick in this chorus
    E                A                B7
D#|---------------------------------------------------------------------------|
A#|-------0----------------2----------------0---------------0-----------------|
F#|---1-------1--------2-------2--------2-------2---2---2-------2-------------|
C#|---------------------------------------------------------------------------|
G#|-2---2---2---2----0---0---0---0----2---2---2---2---2---2---2---2-----------|
D#|---------------------------------------------------------------------------|

E           A
Hey, little Hollywood, you’re
B7
gone but you’re not forgot.
           E             A
You got the cash but your credit’s no good,
    B7
you flipped the script and you shot the plot.
  E                             A           
I remember, I remember when your neon used to
B7              
burn so bright and pink-
E  A        B7           E
 a Saturday night kind of pink.

[Verse 2] Do this twice
D#|---------------------------------------------------------------------------|
A#|---9---9---9---9---9---9---9---9---9---9---9---9---9---7---5---7---2-------|
F#|---------------------------------------------------------------------------|
C#|---------------------------------------------------------------------------|
G#|-----------------------------------------------------------------0---------|
D#|-0---0---0---0---0---0---0---0---0---0---0---0---0---0---0---0-------------|
                                              
D#|---------------------------------------------------------------------------|
A#|---2---2---2---2---2---2---2---2---2---2---2---4---4---5---5---------------|
F#|---------------------------------------------------------------------------|
C#|---------------------------------------------------------------------------|
G#|-0---0---0---0---0---0---0---0---0---0---0---0---0---0---0-----------------|
D#|---------------------------------------------------------------------------|
 
  Do this once
D#|---------------------------------------------------------------------------|
A#|---9---9---9---9---9---9---9---9---9---9---9---9---9---9---9---7-----------|
F#|---------------------------------------------------------------------------|
C#|---------------------------------------------------------------------------|
G#|---------------------------------------------------------------------------|
D#|-0---0---0---0---0---0---0---0---0---0---0---0---0---0---0---0-------------|

                                     B7 (Finger pick) 
D#|-------------------------------------------------2-------------------------|
A#|---2---2---2---2---2---2---2---2-----0-------0-------0-------0-------------|
F#|-----------------------------------------2---------------2-----------------|
C#|---------------------------------------------------------------------------|
G#|-0---0---0---0---0---0---0---0-----2---2---2---2---2---2---2---------------|
D#|---------------------------------------------------------------------------|

[Chorus] You finger pick in this chorus
    E                A                B7
D#|---------------------------------------------------------------------------|
A#|-------0----------------2----------------0---------------0-----------------|
F#|---1-------1--------2-------2--------2-------2---2---2-------2-------------|
C#|---------------------------------------------------------------------------|
G#|-2---2---2---2----0---0---0---0----2---2---2---2---2---2---2---2-----------|
D#|---------------------------------------------------------------------------|

E           A
Hey, little Hollywood, you’re
B7
gone but you’re not forgot.
           E             A
You got the cash but your credit’s no good,
    B7
you flipped the script and you shot the plot.
  E                             A           
I remember, I remember when your neon used to
B7              
burn so bright and pink-
E  A        B7           E
 a Saturday night kind of pink.

[Bridge]
E                           A
There’ll be devils in their rush
E                       A
The duct tape makes you hush
E
Hey there Sedona, let me cut you a deal, I’m a little hung-over and 
E                       A     B7
I may have to steal your soul, woah, woah.

Matt plays this with the first two A chords in the bridge
D#|--2--2--2---2--2----------------------------------------------------------------|
A#|--4--4--4---5--5----------------------------------------------------------------|
F#|--2--2--2---2--2----------------------------------------------------------------|
C#|--2--2--2---2--2----------------------------------------------------------------|
G#|--0--0--0---0--0----------------------------------------------------------------|
D#|--------------------------------------------------------------------------------|

[Chorus]
E           A
Hey, little Hollywood, you’re
B7
gone but you’re not forgot
           E             A
You got the cash but your credit’s no good
    B7
You flipped the script and you shot the plot
  E                             A           
I remember, I remember when your neon used to
B7              
burn so bright and pink, so bright and pink!-
E  A        B7           (Just hit your open D# string on the last note)
 a Saturday night kind of pink.

[Intro]
[Verse]
[Chorus]
[Verse]
[Chorus]
[Bridge]
[Chorus]

            
            
Suggest correction
Creating personal tab
Creating personal tab
You can edit any tab online and save it as your Personal.

You can edit, replace or remove any tab part or add personal notes – all changes will be seen only by you.

Personal tabs can be accessed anytime from any device, even offline.
Learn more »
comments
print report bad tab
6 comments total. Showing first comments.
0 reply
pmclaurin 57 Dec 14, 2015 04:14 PM, edited at 09:16 pm

Looks good.

0 reply
Lee Baker 70 Dec 18, 2015 05:06 PM

Thanks man!

0 reply
AgentWombat 42 Mar 12, 2016 01:33 PM

I think I'd just switch the root to the G# for the second half of the rift;

D#|---------------------------------------------------------------------------|
A#|---9---9---9---9---9---9---9---9---9---9---9---9---9---7---5---7---2-------|
F#|---------------------------------------------------------------------------|
C#|---------------------------------------------------------------------------|
G#|-----------------------------------------------------------------0---------|
D#|-0---0---0---0---0---0---0---0---0---0---0---0---0---0---0---0-------------|

D#|---------------------------------------------------------------------------|
A#|---2---2---2---2---2---2---2---2---2---2---2---4---4---5---5---------------|
F#|---------------------------------------------------------------------------|
C#|---------------------------------------------------------------------------|
G#|-0---0---0---0---0---0---0---0---0---0---0---0---0---0---0-----------------|
D#|---------------------------------------------------------------------------|

guest
You may want to rate the tab now too:
select rating
Wanna post a correction for this tab? Suggest correction