Oops, an error
Loading. Please wait.

Almost Like Life tab

version 2
version 2

Whole song

93 views 1 this week
no commentswrite comment
1 2 3 4 5
2 more votes to show rating
add to favorites
×
Save as Personal and add changes to this tab that will be seen only by you. Learn more ›
×
You can save this tab as Personal to edit and correct it or add notes. All changes will be seen only by you. Learn more »
launch autoscroll
font size
0
reset
how to read this tab
guitar tuner
edit
Autoscroll
slow
fast
+/-
esc
set tempo
stop
Author
THIS NEEDED CORRECTIONS!!!!!!!!
Please enjoy =]

Tuning:DADGBe

INTRO/VERSE:
e|-------------------------------------------------------------------------|
B|-------------------------------------------------------------------------|
G|-------------------------------------------------------------------------|
D|-----------2-----2--------------2-----2h3-2------------------------------|
A|---0---0-----0----0-----0---0-----0-0-------0----------------------------|
D|-3---3---3-----3---3--0---0---0----0-------------------------------------|

CHORUS(guitar I)
e|-------------------------------------------------------------------------|
B|--------13---------------13-------------13-------------------------------|
G|--9h10------10-----9h10------9----9h10------10----12-10------------------|
D|-------------------------------------------------------------------------|
A|-------------------------------------------------------------------------|
D|-------------------------------------------------------------------------|

CHORUS(guitar II)
e|-------------------------------------------------------------------------|
B|-------------------------------------------------------------------------|
G|-------------------------------------------------------------------------|
D|--3-----------------0--------------3-------------0-----------------------|
A|--3-----------------0--------------3-------------0-----------------------|
E|--3-----------------0--------------3-------------0-----------------------|

BRIDGE
    You, you’ll be my sweetest sanity
e|----------------------------------------------------------------------------|
B|----------------------------------------------------------------------------|
G|----------------------------------------------------------------------------|
D|---10-----------------8-----------------------------------------------------|
A|---10-----------------8-----------------------------------------------------|
E|---10-----------------8-----------------------------------------------------|

For the whole song except the bridge, guitar 2 always does the 3 to 0 movement in the DAD strings.

Verse:
Since you’re gone I can’t see clear, everything just turns to gray.
Burning embers of our plans, catch the wind and sail away.
I’m living in slow motion now, going through the motions everyday.

Chorus:
So I’ll stay and live the daydreams that are never gonna come true.
It’s almost like life except for you.
And I’m never gonna move on, living here without you.
It’s almost like life except for you.

Verse:
I knew you deserved so much better than this hell I’ve made.
If I could live it down again, I’d trade it all in for your gaze.
What have I done? How can I live and never get you back?
What have I done… how… can…

Chorus:
I’ll just stay and watch it go down. I’m on a sinking ship without you.
It’s almost like life except for you.
And I’ll go and do the wrong things. But they won’t feel the same without you.
It’s almost like life except for you.

Bridge:
Will you be my sweetest sanity?
Say you’ll be my sweetest sanity.

Chorus:
And the world is gonna spin on, but I’m motionless without you.
It’s almost like life except for you.
And every single thing has changed, but I still feel the same about you.
It’s almost like life except for you


| h  hammer-on

            
            
Suggest correction
Creating personal tab
Creating personal tab
You can edit any tab online and save it as your Personal.

You can edit, replace or remove any tab part or add personal notes – all changes will be seen only by you.

Personal tabs can be accessed anytime from any device, even offline.
Learn more »
Give kudos to tab author, rate the tab!
1 2 3 4 5
comments
print report bad tab
guest
You may want to rate the tab now too:
select rating
Wanna post a correction for this tab? Suggest correction