Oops, an error
Loading. Please wait.

This Is Just What I Needed chords

by Howie D
10 views 1 this week
no commentswrite comment
1 2 3 4 5
3 more votes to show rating
add to favorites
×
Save as Personal and add changes to this tab that will be seen only by you. Learn more ›
×
You can save this tab as Personal to edit and correct it or add notes. All changes will be seen only by you. Learn more »
launch autoscroll
font size
0
reset
transpose
0
reset
display chords
guitar tuner
edit
Autoscroll
slow
fast
+/-
esc
set tempo
stop
Author
Difficulty
Strumming
There is no strumming pattern for this song yet. and get +5 IQ
[Intro]
     Fm                          Cm                Gm                           Gm
E|----------3/4-3--------|-----------------|------------------------|--------------------------|
B|-------4----------6-4--|-------3/4-3-1---|-------1/3--------------|----------1/3-------------|
G|----5------------------|-----0---------0-|-----0--------3--0------|-------0------3--0--------| 
D|-3---------------------|---1-------------|----0---------------0---|-----0--------------0-----|
A|-----------------------|-3---------------|------------------------|--------------------------|
E|-----------------------|-----------------|-3----------------------|--3-----------------------|

     Fm                          Cm                Bb                           Bb
E|----------3/4-3--------|-----------------|------------------------|--------------------------|
B|-------4----------6-4--|-------3/4-3-1---|-------4/6-3------------|----------4/6--3----------|
G|----5------------------|-----0---------0-|-----3--------3---------|-------3---------3--------| 
D|-3---------------------|---1-------------|----3-----------3-------|-----3--------------3-----|
A|-----------------------|-3---------------|-1----------------------|-1------------------------|
E|-----------------------|-----------------|------------------------|--------------------------|

/ - Slide up

[Verse 1]
Fm
Baby girl
Cm
More than friend
Gm          
Wasn't our intention when this begins
Fm
But here we are
Cm
Making sense
Bb
And loving every moment
               Fm
It's funny how we both got here
Cm              Gm
Coz we had no clue
            Fm                     Cm
We thought of regrets of what we did
        Bb
About to do, yeah, yeah, yeah

[Chorus]
             Fm
Coz when the light went down
     Cm             Gm
And all went dowh, yeah yeah, yeah
             Fm
And when the sun comes up
     Cm                       Bb
You still wanna give me love yeah yeah yeah
                        Fm    Cm    Gm
And this is just what I needed yeah yeah
                        Fm     Cm   Bb
And this is just what I needed yeah yeah

[Verse 2]
Fm                     Cm
I'm glad we did what we did
 Cm                 
Coz I love how you do
        Gm  
The little things that make me wanna do it back to you
Fm             
You're so sexy with it
Cm
I wanna get it get it
Bb
I'm looking forward to round two
           Fm
I wouldn't change a thing
   Cm               Gm
Of what just happen now oh no no no
           Fm
Coz at the end of the day
         Cm                Bb
It's want we both want now yeah yeah yeah

[Chorus]
             Fm
Coz when the light went down
     Cm             Gm
And all went dowh, yeah yeah, yeah
             Fm
And when the sun comes up
     Cm                       Bb
You still wanna give me love yeah yeah yeah
                        Fm    Cm    Gm
And this is just what I needed yeah yeah
                        Fm     Cm   Bb
And this is just what I needed yeah yeah

[Verse 3]
Fm
Alright now ok, this is what we needed       
Cm               
We should make a routine and repeat it
Gm
Friendship with benefits I swear that concepts genius
Fm
Yeah, it's a long time
Cm
But there ain't no such thing as wrong time
Bb
Yeah, we could do this all night goin' at it like it's prom night
Fm
But it's alright if you let it
               Cm
I'll make your heart beat like a magnet
         Gm
You say I'm the one that you want cuz I'm everything that he's not
Fm
Well, how we get attached girl
                                    Cm
If you give me your heart you'll never get it back baby that's a fact
            Bb
If this is love then I guess I'll go with just friends

[Chorus]
             Fm
Coz when the light went down
     Cm             Gm
And all went dowh, yeah yeah, yeah
                       Fm
And baby girl when the sun comes up
     Cm                       Bb
You still wanna give me love yeah yeah yeah
                        Fm    Cm    Gm
And this is just what I needed yeah yeah
                        Fm     Cm   Bb
And this is just what I needed yeah yeah

[Outro]
                        Fm      
And this is just what I needed 
         Cm
What I needed
                Gm   
Just what I needed 
        Fm
What I needed
                Cm
Just what I needed 
             Bb
Just what I needed
      Fm Cm Gm Fm Cm Bb
Oh oh oh

            
            
Suggest correction
Creating personal tab
Creating personal tab
You can edit any tab online and save it as your Personal.

You can edit, replace or remove any tab part or add personal notes – all changes will be seen only by you.

Personal tabs can be accessed anytime from any device, even offline.
Learn more »
Give kudos to tab author, rate the tab!
1 2 3 4 5
comments
print report bad tab
guest
You may want to rate the tab now too:
select rating
Wanna post a correction for this tab? Suggest correction